 0
SECTION
 2
HEADER
 9
$ACADVER
 1
AC1009
 0
ENDSEC
 0
SECTION
 2
ENTITIES
 0
POLYLINE
 8
TITLE
 66
1
 70
1
 10
0.0
 20
0.0
 30
0.0
 0
VERTEX
 8
TITLE
 10
 -0.1000
 20
  0.1000
 30
0.0
 0
VERTEX
 8
TITLE
 10
 15.1000
 20
  0.1000
 30
0.0
 0
VERTEX
 8
TITLE
 10
 15.1000
 20
  9.8000
 30
0.0
 0
VERTEX
 8
TITLE
 10
 -0.1000
 20
  9.8000
 30
0.0
 0
SEQEND
 8
TITLE
 0
POLYLINE
 8
TITLE
 66
1
 70
1
 10
0.0
 20
0.0
 30
0.0
 0
VERTEX
 8
TITLE
 10
  0.0000
 20
  0.2000
 30
0.0
 0
VERTEX
 8
TITLE
 10
 15.0000
 20
  0.2000
 30
0.0
 0
VERTEX
 8
TITLE
 10
 15.0000
 20
  9.7000
 30
0.0
 0
VERTEX
 8
TITLE
 10
  0.0000
 20
  9.7000
 30
0.0
 0
SEQEND
 8
TITLE
 0
POLYLINE
 8
TITLE
 66
1
 10
0.0
 20
0.0
 30
0.0
 0
VERTEX
 8
TITLE
 10
  3.1600
 20
  0.2000
 30
0.0
 0
VERTEX
 8
TITLE
 10
  3.1600
 20
  0.1000
 30
0.0
 0
SEQEND
 8
TITLE
 0
POLYLINE
 8
TITLE
 66
1
 10
0.0
 20
0.0
 30
0.0
 0
VERTEX
 8
TITLE
 10
  3.1600
 20
  9.7000
 30
0.0
 0
VERTEX
 8
TITLE
 10
  3.1600
 20
  9.8000
 30
0.0
 0
SEQEND
 8
TITLE
 0
POLYLINE
 8
TITLE
 66
1
 10
0.0
 20
0.0
 30
0.0
 0
VERTEX
 8
TITLE
 10
  6.1200
 20
  0.2000
 30
0.0
 0
VERTEX
 8
TITLE
 10
  6.1200
 20
  0.1000
 30
0.0
 0
SEQEND
 8
TITLE
 0
POLYLINE
 8
TITLE
 66
1
 10
0.0
 20
0.0
 30
0.0
 0
VERTEX
 8
TITLE
 10
  6.1200
 20
  9.7000
 30
0.0
 0
VERTEX
 8
TITLE
 10
  6.1200
 20
  9.8000
 30
0.0
 0
SEQEND
 8
TITLE
 0
POLYLINE
 8
TITLE
 66
1
 10
0.0
 20
0.0
 30
0.0
 0
VERTEX
 8
TITLE
 10
  9.0800
 20
  0.2000
 30
0.0
 0
VERTEX
 8
TITLE
 10
  9.0800
 20
  0.1000
 30
0.0
 0
SEQEND
 8
TITLE
 0
POLYLINE
 8
TITLE
 66
1
 10
0.0
 20
0.0
 30
0.0
 0
VERTEX
 8
TITLE
 10
  9.0800
 20
  9.7000
 30
0.0
 0
VERTEX
 8
TITLE
 10
  9.0800
 20
  9.8000
 30
0.0
 0
SEQEND
 8
TITLE
 0
POLYLINE
 8
TITLE
 66
1
 10
0.0
 20
0.0
 30
0.0
 0
VERTEX
 8
TITLE
 10
 12.0400
 20
  0.2000
 30
0.0
 0
VERTEX
 8
TITLE
 10
 12.0400
 20
  0.1000
 30
0.0
 0
SEQEND
 8
TITLE
 0
POLYLINE
 8
TITLE
 66
1
 10
0.0
 20
0.0
 30
0.0
 0
VERTEX
 8
TITLE
 10
 12.0400
 20
  9.7000
 30
0.0
 0
VERTEX
 8
TITLE
 10
 12.0400
 20
  9.8000
 30
0.0
 0
SEQEND
 8
TITLE
 0
TEXT
 8
TITLE
 10
  1.6800
 20
  0.1200
 30
0.0
 40
  0.0500
 1
5
 0
TEXT
 8
TITLE
 10
  1.6800
 20
  9.7200
 30
0.0
 40
  0.0500
 1
5
 0
TEXT
 8
TITLE
 10
  4.6400
 20
  0.1200
 30
0.0
 40
  0.0500
 1
4
 0
TEXT
 8
TITLE
 10
  4.6400
 20
  9.7200
 30
0.0
 40
  0.0500
 1
4
 0
TEXT
 8
TITLE
 10
  7.6000
 20
  0.1200
 30
0.0
 40
  0.0500
 1
3
 0
TEXT
 8
TITLE
 10
  7.6000
 20
  9.7200
 30
0.0
 40
  0.0500
 1
3
 0
TEXT
 8
TITLE
 10
 10.5600
 20
  0.1200
 30
0.0
 40
  0.0500
 1
2
 0
TEXT
 8
TITLE
 10
 10.5600
 20
  9.7200
 30
0.0
 40
  0.0500
 1
2
 0
TEXT
 8
TITLE
 10
 13.5200
 20
  0.1200
 30
0.0
 40
  0.0500
 1
1
 0
TEXT
 8
TITLE
 10
 13.5200
 20
  9.7200
 30
0.0
 40
  0.0500
 1
1
 0
POLYLINE
 8
TITLE
 66
1
 10
0.0
 20
0.0
 30
0.0
 0
VERTEX
 8
TITLE
 10
 -0.1000
 20
  7.1800
 30
0.0
 0
VERTEX
 8
TITLE
 10
  0.0000
 20
  7.1800
 30
0.0
 0
SEQEND
 8
TITLE
 0
POLYLINE
 8
TITLE
 66
1
 10
0.0
 20
0.0
 30
0.0
 0
VERTEX
 8
TITLE
 10
 15.0000
 20
  7.1800
 30
0.0
 0
VERTEX
 8
TITLE
 10
 15.1000
 20
  7.1800
 30
0.0
 0
SEQEND
 8
TITLE
 0
SOLID
 8
TITLE
 10
  0.0000
 20
  4.8600
 30
0.0
 11
 -0.0500
 21
  4.8800
 31
0.0
 12
 -0.0500
 22
  4.8400
 32
0.0
 13
 -0.0500
 23
  4.8600
 33
0.0
 0
SOLID
 8
TITLE
 10
 15.0000
 20
  4.8600
 30
0.0
 11
 15.0500
 21
  4.8800
 31
0.0
 12
 15.0500
 22
  4.8400
 32
0.0
 13
 15.0500
 23
  4.8600
 33
0.0
 0
POLYLINE
 8
TITLE
 66
1
 10
0.0
 20
0.0
 30
0.0
 0
VERTEX
 8
TITLE
 10
 -0.1000
 20
  4.8600
 30
0.0
 0
VERTEX
 8
TITLE
 10
  0.0000
 20
  4.8600
 30
0.0
 0
SEQEND
 8
TITLE
 0
POLYLINE
 8
TITLE
 66
1
 10
0.0
 20
0.0
 30
0.0
 0
VERTEX
 8
TITLE
 10
 15.0000
 20
  4.8600
 30
0.0
 0
VERTEX
 8
TITLE
 10
 15.1000
 20
  4.8600
 30
0.0
 0
SEQEND
 8
TITLE
 0
SOLID
 8
TITLE
 10
  0.0000
 20
  4.8600
 30
0.0
 11
 -0.0500
 21
  4.8800
 31
0.0
 12
 -0.0500
 22
  4.8400
 32
0.0
 13
 -0.0500
 23
  4.8600
 33
0.0
 0
SOLID
 8
TITLE
 10
 15.0000
 20
  4.8600
 30
0.0
 11
 15.0500
 21
  4.8800
 31
0.0
 12
 15.0500
 22
  4.8400
 32
0.0
 13
 15.0500
 23
  4.8600
 33
0.0
 0
POLYLINE
 8
TITLE
 66
1
 10
0.0
 20
0.0
 30
0.0
 0
VERTEX
 8
TITLE
 10
 -0.1000
 20
  2.5400
 30
0.0
 0
VERTEX
 8
TITLE
 10
  0.0000
 20
  2.5400
 30
0.0
 0
SEQEND
 8
TITLE
 0
POLYLINE
 8
TITLE
 66
1
 10
0.0
 20
0.0
 30
0.0
 0
VERTEX
 8
TITLE
 10
 15.0000
 20
  2.5400
 30
0.0
 0
VERTEX
 8
TITLE
 10
 15.1000
 20
  2.5400
 30
0.0
 0
SEQEND
 8
TITLE
 0
SOLID
 8
TITLE
 10
  0.0000
 20
  4.8600
 30
0.0
 11
 -0.0500
 21
  4.8800
 31
0.0
 12
 -0.0500
 22
  4.8400
 32
0.0
 13
 -0.0500
 23
  4.8600
 33
0.0
 0
SOLID
 8
TITLE
 10
 15.0000
 20
  4.8600
 30
0.0
 11
 15.0500
 21
  4.8800
 31
0.0
 12
 15.0500
 22
  4.8400
 32
0.0
 13
 15.0500
 23
  4.8600
 33
0.0
 0
TEXT
 8
TITLE
 10
 -0.0800
 20
  8.3400
 30
0.0
 40
  0.0500
 1
D
 0
TEXT
 8
TITLE
 10
 15.0200
 20
  8.3400
 30
0.0
 40
  0.0500
 1
D
 0
TEXT
 8
TITLE
 10
 -0.0800
 20
  6.0200
 30
0.0
 40
  0.0500
 1
C
 0
TEXT
 8
TITLE
 10
 15.0200
 20
  6.0200
 30
0.0
 40
  0.0500
 1
C
 0
TEXT
 8
TITLE
 10
 -0.0800
 20
  3.7000
 30
0.0
 40
  0.0500
 1
B
 0
TEXT
 8
TITLE
 10
 15.0200
 20
  3.7000
 30
0.0
 40
  0.0500
 1
B
 0
TEXT
 8
TITLE
 10
 -0.0800
 20
  1.3800
 30
0.0
 40
  0.0500
 1
A
 0
TEXT
 8
TITLE
 10
 15.0200
 20
  1.3800
 30
0.0
 40
  0.0500
 1
A
 0
TEXT
 8
TITLE
 10
 11.5000
 20
  0.4186
 30
0.0
 40
  0.0514
 1
<Doc>
 0
TEXT
 8
TITLE
 10
 14.5000
 20
  0.4186
 30
0.0
 40
  0.0514
 1
<RevCode>
 0
TEXT
 8
TITLE
 10
 11.5000
 20
  0.7186
 30
0.0
 40
  0.0514
 1
<Title>
 0
TEXT
 8
TITLE
 10
 11.2000
 20
  0.4186
 30
0.0
 40
  0.0514
 1
B
 0
TEXT
 8
TITLE
 10
 13.6000
 20
  0.2186
 30
0.0
 40
  0.0514
 1
1
 0
TEXT
 8
TITLE
 10
 14.2000
 20
  0.2186
 30
0.0
 40
  0.0514
 1
2
 0
TEXT
 8
TITLE
 10
 11.6200
 20
  0.2186
 30
0.0
 40
  0.0514
 1
Monday, January 29, 2001
 0
TEXT
 8
PARTTEXT
 10
 11.1000
 20
  0.8186
 30
0.0
 40
  0.0514
 1
Title
 0
TEXT
 8
PARTTEXT
 10
 11.1000
 20
  0.5186
 30
0.0
 40
  0.0514
 1
Size
 0
TEXT
 8
PARTTEXT
 10
 11.5000
 20
  0.5186
 30
0.0
 40
  0.0514
 1
Document Number
 0
TEXT
 8
PARTTEXT
 10
 14.4000
 20
  0.5186
 30
0.0
 40
  0.0514
 1
Rev
 0
TEXT
 8
PARTTEXT
 10
 11.1000
 20
  0.2186
 30
0.0
 40
  0.0514
 1
Date:
 0
TEXT
 8
PARTTEXT
 10
 13.1000
 20
  0.2186
 30
0.0
 40
  0.0514
 1
Sheet
 0
POLYLINE
 8
TITLE
 66
1
 70
1
 10
0.0
 20
0.0
 30
0.0
 0
VERTEX
 8
TITLE
 10
 11.1000
 20
  1.1000
 30
0.0
 0
VERTEX
 8
TITLE
 10
 14.7000
 20
  1.1000
 30
0.0
 0
VERTEX
 8
TITLE
 10
 14.7000
 20
  0.9000
 30
0.0
 0
VERTEX
 8
TITLE
 10
 11.1000
 20
  0.9000
 30
0.0
 0
SEQEND
 8
TITLE
 0
POLYLINE
 8
TITLE
 66
1
 70
1
 10
0.0
 20
0.0
 30
0.0
 0
VERTEX
 8
TITLE
 10
 11.1000
 20
  0.9000
 30
0.0
 0
VERTEX
 8
TITLE
 10
 14.7000
 20
  0.9000
 30
0.0
 0
VERTEX
 8
TITLE
 10
 14.7000
 20
  0.6000
 30
0.0
 0
VERTEX
 8
TITLE
 10
 11.1000
 20
  0.6000
 30
0.0
 0
SEQEND
 8
TITLE
 0
POLYLINE
 8
TITLE
 66
1
 70
1
 10
0.0
 20
0.0
 30
0.0
 0
VERTEX
 8
TITLE
 10
 11.1000
 20
  0.6000
 30
0.0
 0
VERTEX
 8
TITLE
 10
 11.4000
 20
  0.6000
 30
0.0
 0
VERTEX
 8
TITLE
 10
 11.4000
 20
  0.3000
 30
0.0
 0
VERTEX
 8
TITLE
 10
 11.1000
 20
  0.3000
 30
0.0
 0
SEQEND
 8
TITLE
 0
POLYLINE
 8
TITLE
 66
1
 70
1
 10
0.0
 20
0.0
 30
0.0
 0
VERTEX
 8
TITLE
 10
 11.4000
 20
  0.6000
 30
0.0
 0
VERTEX
 8
TITLE
 10
 14.4000
 20
  0.6000
 30
0.0
 0
VERTEX
 8
TITLE
 10
 14.4000
 20
  0.3000
 30
0.0
 0
VERTEX
 8
TITLE
 10
 11.4000
 20
  0.3000
 30
0.0
 0
SEQEND
 8
TITLE
 0
POLYLINE
 8
TITLE
 66
1
 70
1
 10
0.0
 20
0.0
 30
0.0
 0
VERTEX
 8
TITLE
 10
 14.4000
 20
  0.6000
 30
0.0
 0
VERTEX
 8
TITLE
 10
 14.7000
 20
  0.6000
 30
0.0
 0
VERTEX
 8
TITLE
 10
 14.7000
 20
  0.3000
 30
0.0
 0
VERTEX
 8
TITLE
 10
 14.4000
 20
  0.3000
 30
0.0
 0
SEQEND
 8
TITLE
 0
POLYLINE
 8
TITLE
 66
1
 70
1
 10
0.0
 20
0.0
 30
0.0
 0
VERTEX
 8
TITLE
 10
 11.1000
 20
  0.3000
 30
0.0
 0
VERTEX
 8
TITLE
 10
 13.1000
 20
  0.3000
 30
0.0
 0
VERTEX
 8
TITLE
 10
 13.1000
 20
  0.2000
 30
0.0
 0
VERTEX
 8
TITLE
 10
 11.1000
 20
  0.2000
 30
0.0
 0
SEQEND
 8
TITLE
 0
POLYLINE
 8
TITLE
 66
1
 70
1
 10
0.0
 20
0.0
 30
0.0
 0
VERTEX
 8
TITLE
 10
 13.1000
 20
  0.3000
 30
0.0
 0
VERTEX
 8
TITLE
 10
 14.7000
 20
  0.3000
 30
0.0
 0
VERTEX
 8
TITLE
 10
 14.7000
 20
  0.2000
 30
0.0
 0
VERTEX
 8
TITLE
 10
 13.1000
 20
  0.2000
 30
0.0
 0
SEQEND
 8
TITLE
 0
TEXT
 8
PARTTEXT
 10
 13.9000
 20
  0.2186
 30
0.0
 40
  0.0514
 1
of
 0
TEXT
 8
TITLE
 10
 11.5000
 20
  0.4186
 30
0.0
 40
  0.0514
 1
<Doc>
 0
TEXT
 8
TITLE
 10
 14.5000
 20
  0.4186
 30
0.0
 40
  0.0514
 1
<RevCode>
 0
TEXT
 8
TITLE
 10
 11.5000
 20
  0.7186
 30
0.0
 40
  0.0514
 1
<Title>
 0
TEXT
 8
TITLE
 10
 11.2000
 20
  0.4186
 30
0.0
 40
  0.0514
 1
B
 0
TEXT
 8
TITLE
 10
 13.6000
 20
  0.2186
 30
0.0
 40
  0.0514
 1
1
 0
TEXT
 8
TITLE
 10
 14.2000
 20
  0.2186
 30
0.0
 40
  0.0514
 1
2
 0
TEXT
 8
TITLE
 10
 11.6200
 20
  0.2186
 30
0.0
 40
  0.0514
 1
Monday, January 29, 2001
 0
TEXT
 8
PARTTEXT
 10
 11.1000
 20
  0.8186
 30
0.0
 40
  0.0514
 1
Title
 0
TEXT
 8
PARTTEXT
 10
 11.1000
 20
  0.5186
 30
0.0
 40
  0.0514
 1
Size
 0
TEXT
 8
PARTTEXT
 10
 11.5000
 20
  0.5186
 30
0.0
 40
  0.0514
 1
Document Number
 0
TEXT
 8
PARTTEXT
 10
 14.4000
 20
  0.5186
 30
0.0
 40
  0.0514
 1
Rev
 0
TEXT
 8
PARTTEXT
 10
 11.1000
 20
  0.2186
 30
0.0
 40
  0.0514
 1
Date:
 0
TEXT
 8
PARTTEXT
 10
 13.1000
 20
  0.2186
 30
0.0
 40
  0.0514
 1
Sheet
 0
POLYLINE
 8
TITLE
 66
1
 70
1
 10
0.0
 20
0.0
 30
0.0
 0
VERTEX
 8
TITLE
 10
 11.1000
 20
  1.1000
 30
0.0
 0
VERTEX
 8
TITLE
 10
 14.7000
 20
  1.1000
 30
0.0
 0
VERTEX
 8
TITLE
 10
 14.7000
 20
  0.9000
 30
0.0
 0
VERTEX
 8
TITLE
 10
 11.1000
 20
  0.9000
 30
0.0
 0
SEQEND
 8
TITLE
 0
POLYLINE
 8
TITLE
 66
1
 70
1
 10
0.0
 20
0.0
 30
0.0
 0
VERTEX
 8
TITLE
 10
 11.1000
 20
  0.9000
 30
0.0
 0
VERTEX
 8
TITLE
 10
 14.7000
 20
  0.9000
 30
0.0
 0
VERTEX
 8
TITLE
 10
 14.7000
 20
  0.6000
 30
0.0
 0
VERTEX
 8
TITLE
 10
 11.1000
 20
  0.6000
 30
0.0
 0
SEQEND
 8
TITLE
 0
POLYLINE
 8
TITLE
 66
1
 70
1
 10
0.0
 20
0.0
 30
0.0
 0
VERTEX
 8
TITLE
 10
 11.1000
 20
  0.6000
 30
0.0
 0
VERTEX
 8
TITLE
 10
 11.4000
 20
  0.6000
 30
0.0
 0
VERTEX
 8
TITLE
 10
 11.4000
 20
  0.3000
 30
0.0
 0
VERTEX
 8
TITLE
 10
 11.1000
 20
  0.3000
 30
0.0
 0
SEQEND
 8
TITLE
 0
POLYLINE
 8
TITLE
 66
1
 70
1
 10
0.0
 20
0.0
 30
0.0
 0
VERTEX
 8
TITLE
 10
 11.4000
 20
  0.6000
 30
0.0
 0
VERTEX
 8
TITLE
 10
 14.4000
 20
  0.6000
 30
0.0
 0
VERTEX
 8
TITLE
 10
 14.4000
 20
  0.3000
 30
0.0
 0
VERTEX
 8
TITLE
 10
 11.4000
 20
  0.3000
 30
0.0
 0
SEQEND
 8
TITLE
 0
POLYLINE
 8
TITLE
 66
1
 70
1
 10
0.0
 20
0.0
 30
0.0
 0
VERTEX
 8
TITLE
 10
 14.4000
 20
  0.6000
 30
0.0
 0
VERTEX
 8
TITLE
 10
 14.7000
 20
  0.6000
 30
0.0
 0
VERTEX
 8
TITLE
 10
 14.7000
 20
  0.3000
 30
0.0
 0
VERTEX
 8
TITLE
 10
 14.4000
 20
  0.3000
 30
0.0
 0
SEQEND
 8
TITLE
 0
POLYLINE
 8
TITLE
 66
1
 70
1
 10
0.0
 20
0.0
 30
0.0
 0
VERTEX
 8
TITLE
 10
 11.1000
 20
  0.3000
 30
0.0
 0
VERTEX
 8
TITLE
 10
 13.1000
 20
  0.3000
 30
0.0
 0
VERTEX
 8
TITLE
 10
 13.1000
 20
  0.2000
 30
0.0
 0
VERTEX
 8
TITLE
 10
 11.1000
 20
  0.2000
 30
0.0
 0
SEQEND
 8
TITLE
 0
POLYLINE
 8
TITLE
 66
1
 70
1
 10
0.0
 20
0.0
 30
0.0
 0
VERTEX
 8
TITLE
 10
 13.1000
 20
  0.3000
 30
0.0
 0
VERTEX
 8
TITLE
 10
 14.7000
 20
  0.3000
 30
0.0
 0
VERTEX
 8
TITLE
 10
 14.7000
 20
  0.2000
 30
0.0
 0
VERTEX
 8
TITLE
 10
 13.1000
 20
  0.2000
 30
0.0
 0
SEQEND
 8
TITLE
 0
TEXT
 8
PARTTEXT
 10
 13.9000
 20
  0.2186
 30
0.0
 40
  0.0514
 1
of
 0
TEXT
 8
PARTTEXT
 10
  8.3000
 20
  2.7186
 30
0.0
 40
  0.0514
 1
C7
 0
TEXT
 8
PARTTEXT
 10
  8.3000
 20
  2.6186
 30
0.0
 40
  0.0514
 1
.1uF
 0
LINE
 8
PARTS
 10
  8.6000
 20
  2.9000
 30
0.0
 11
  8.6000
 21
  2.8000
 31
0.0
 0
LINE
 8
PARTS
 10
  8.6000
 20
  2.6000
 30
0.0
 11
  8.6000
 21
  2.7000
 31
0.0
 0
POLYLINE
 8
PARTS
 66
1
 10
0.0
 20
0.0
 30
0.0
 0
VERTEX
 8
PARTS
 10
  8.5000
 20
  2.8000
 30
0.0
 0
VERTEX
 8
PARTS
 10
  8.7000
 20
  2.8000
 30
0.0
 0
SEQEND
 8
PARTS
 0
POLYLINE
 8
PARTS
 66
1
 10
0.0
 20
0.0
 30
0.0
 0
VERTEX
 8
PARTS
 10
  8.6000
 20
  2.7600
 30
0.0
 0
VERTEX
 8
PARTS
 10
  8.6000
 20
  2.7000
 30
0.0
 0
SEQEND
 8
PARTS
 0
POLYLINE
 8
PARTS
 66
1
 10
0.0
 20
0.0
 30
0.0
 0
VERTEX
 8
PARTS
 10
  8.7000
 20
  2.7300
 30
0.0
 42
  0.1654
 0
VERTEX
 8
PARTS
 10
  8.6000
 20
  2.7600
 30
0.0
 0
SEQEND
 8
PARTS
 0
POLYLINE
 8
PARTS
 66
1
 10
0.0
 20
0.0
 30
0.0
 0
VERTEX
 8
PARTS
 10
  8.6000
 20
  2.7600
 30
0.0
 42
  0.1654
 0
VERTEX
 8
PARTS
 10
  8.5000
 20
  2.7300
 30
0.0
 0
SEQEND
 8
PARTS
 0
TEXT
 8
PARTTEXT
 10
 12.1000
 20
  7.0486
 30
0.0
 40
  0.0514
 1
JDR1
 0
TEXT
 8
PARTTEXT
 10
 12.1000
 20
  5.6186
 30
0.0
 40
  0.0514
 1
CONN DSUB 9-R
 0
LINE
 8
PARTS
 10
 11.8000
 20
  6.0000
 30
0.0
 11
 12.1000
 21
  6.0000
 31
0.0
 0
TEXT
 8
PARTS
 10
 12.1900
 20
  5.9750
 30
0.0
 40
  0.0500
 1
5
 0
TEXT
 8
PARTS
 10
 12.0000
 20
  6.0300
 30
0.0
 40
  0.0500
 1
5
 0
LINE
 8
PARTS
 10
 12.7000
 20
  6.1000
 30
0.0
 11
 12.4000
 21
  6.1000
 31
0.0
 0
TEXT
 8
PARTS
 10
 12.2700
 20
  6.0750
 30
0.0
 40
  0.0500
 1
9
 0
TEXT
 8
PARTS
 10
 12.4600
 20
  6.1300
 30
0.0
 40
  0.0500
 1
9
 0
LINE
 8
PARTS
 10
 11.8000
 20
  6.2000
 30
0.0
 11
 12.1000
 21
  6.2000
 31
0.0
 0
TEXT
 8
PARTS
 10
 12.1900
 20
  6.1750
 30
0.0
 40
  0.0500
 1
4
 0
TEXT
 8
PARTS
 10
 12.0000
 20
  6.2300
 30
0.0
 40
  0.0500
 1
4
 0
LINE
 8
PARTS
 10
 12.7000
 20
  6.3000
 30
0.0
 11
 12.4000
 21
  6.3000
 31
0.0
 0
TEXT
 8
PARTS
 10
 12.2700
 20
  6.2750
 30
0.0
 40
  0.0500
 1
8
 0
TEXT
 8
PARTS
 10
 12.4600
 20
  6.3300
 30
0.0
 40
  0.0500
 1
8
 0
LINE
 8
PARTS
 10
 11.8000
 20
  6.4000
 30
0.0
 11
 12.1000
 21
  6.4000
 31
0.0
 0
TEXT
 8
PARTS
 10
 12.1900
 20
  6.3750
 30
0.0
 40
  0.0500
 1
3
 0
TEXT
 8
PARTS
 10
 12.0000
 20
  6.4300
 30
0.0
 40
  0.0500
 1
3
 0
LINE
 8
PARTS
 10
 12.7000
 20
  6.5000
 30
0.0
 11
 12.4000
 21
  6.5000
 31
0.0
 0
TEXT
 8
PARTS
 10
 12.2700
 20
  6.4750
 30
0.0
 40
  0.0500
 1
7
 0
TEXT
 8
PARTS
 10
 12.4600
 20
  6.5300
 30
0.0
 40
  0.0500
 1
7
 0
LINE
 8
PARTS
 10
 11.8000
 20
  6.6000
 30
0.0
 11
 12.1000
 21
  6.6000
 31
0.0
 0
TEXT
 8
PARTS
 10
 12.1900
 20
  6.5750
 30
0.0
 40
  0.0500
 1
2
 0
TEXT
 8
PARTS
 10
 12.0000
 20
  6.6300
 30
0.0
 40
  0.0500
 1
2
 0
LINE
 8
PARTS
 10
 12.7000
 20
  6.7000
 30
0.0
 11
 12.4000
 21
  6.7000
 31
0.0
 0
TEXT
 8
PARTS
 10
 12.2700
 20
  6.6750
 30
0.0
 40
  0.0500
 1
6
 0
TEXT
 8
PARTS
 10
 12.4600
 20
  6.7300
 30
0.0
 40
  0.0500
 1
6
 0
LINE
 8
PARTS
 10
 11.8000
 20
  6.8000
 30
0.0
 11
 12.1000
 21
  6.8000
 31
0.0
 0
TEXT
 8
PARTS
 10
 12.1900
 20
  6.7750
 30
0.0
 40
  0.0500
 1
1
 0
TEXT
 8
PARTS
 10
 12.0000
 20
  6.8300
 30
0.0
 40
  0.0500
 1
1
 0
POLYLINE
 8
PARTS
 66
1
 70
1
 10
0.0
 20
0.0
 30
0.0
 0
VERTEX
 8
PARTS
 10
 12.1000
 20
  5.9000
 30
0.0
 0
VERTEX
 8
PARTS
 10
 12.1000
 20
  6.9000
 30
0.0
 0
VERTEX
 8
PARTS
 10
 12.4000
 20
  6.9000
 30
0.0
 0
VERTEX
 8
PARTS
 10
 12.4000
 20
  5.9000
 30
0.0
 0
SEQEND
 8
PARTS
 0
POLYLINE
 8
PARTS
 66
1
 10
0.0
 20
0.0
 30
0.0
 0
VERTEX
 8
PARTS
 10
 12.2000
 20
  6.9200
 30
0.0
 0
VERTEX
 8
PARTS
 10
 12.2000
 20
  6.9000
 30
0.0
 0
VERTEX
 8
PARTS
 10
 12.2000
 20
  6.9300
 30
0.0
 0
VERTEX
 8
PARTS
 10
 12.3000
 20
  6.9300
 30
0.0
 0
VERTEX
 8
PARTS
 10
 12.3000
 20
  6.9000
 30
0.0
 0
SEQEND
 8
PARTS
 0
POLYLINE
 8
PARTS
 66
1
 10
0.0
 20
0.0
 30
0.0
 0
VERTEX
 8
PARTS
 10
 12.2900
 20
  5.8800
 30
0.0
 0
VERTEX
 8
PARTS
 10
 12.2900
 20
  5.9000
 30
0.0
 0
VERTEX
 8
PARTS
 10
 12.2900
 20
  5.8700
 30
0.0
 0
VERTEX
 8
PARTS
 10
 12.1900
 20
  5.8700
 30
0.0
 0
VERTEX
 8
PARTS
 10
 12.1900
 20
  5.9000
 30
0.0
 0
SEQEND
 8
PARTS
 0
TEXT
 8
PARTTEXT
 10
  9.8000
 20
  9.0186
 30
0.0
 40
  0.0514
 1
U3
 0
TEXT
 8
PARTTEXT
 10
  9.5000
 20
  2.3186
 30
0.0
 40
  0.0514
 1
connector_128
 0
LINE
 8
PARTS
 10
  8.8000
 20
  8.9000
 30
0.0
 11
  9.1000
 21
  8.9000
 31
0.0
 0
TEXT
 8
PARTS
 10
  9.1900
 20
  8.8750
 30
0.0
 40
  0.0500
 1
GND
 0
TEXT
 8
PARTS
 10
  8.9600
 20
  8.9300
 30
0.0
 40
  0.0500
 1
1A
 0
LINE
 8
PARTS
 10
  8.8000
 20
  8.8000
 30
0.0
 11
  9.1000
 21
  8.8000
 31
0.0
 0
TEXT
 8
PARTS
 10
  9.1900
 20
  8.7750
 30
0.0
 40
  0.0500
 1
GND
 0
TEXT
 8
PARTS
 10
  8.9600
 20
  8.8300
 30
0.0
 40
  0.0500
 1
2A
 0
LINE
 8
PARTS
 10
  8.8000
 20
  8.7000
 30
0.0
 11
  9.1000
 21
  8.7000
 31
0.0
 0
TEXT
 8
PARTS
 10
  9.1900
 20
  8.6750
 30
0.0
 40
  0.0500
 1
+5
 0
TEXT
 8
PARTS
 10
  8.9600
 20
  8.7300
 30
0.0
 40
  0.0500
 1
3A
 0
LINE
 8
PARTS
 10
  8.8000
 20
  8.6000
 30
0.0
 11
  9.1000
 21
  8.6000
 31
0.0
 0
TEXT
 8
PARTS
 10
  9.1900
 20
  8.5750
 30
0.0
 40
  0.0500
 1
+5
 0
TEXT
 8
PARTS
 10
  8.9600
 20
  8.6300
 30
0.0
 40
  0.0500
 1
4A
 0
LINE
 8
PARTS
 10
  8.8000
 20
  8.5000
 30
0.0
 11
  9.1000
 21
  8.5000
 31
0.0
 0
TEXT
 8
PARTS
 10
  9.1900
 20
  8.4750
 30
0.0
 40
  0.0500
 1
DTROUT
 0
TEXT
 8
PARTS
 10
  8.9600
 20
  8.5300
 30
0.0
 40
  0.0500
 1
5A
 0
LINE
 8
PARTS
 10
  8.8000
 20
  8.4000
 30
0.0
 11
  9.1000
 21
  8.4000
 31
0.0
 0
TEXT
 8
PARTS
 10
  9.1900
 20
  8.3750
 30
0.0
 40
  0.0500
 1
A0
 0
TEXT
 8
PARTS
 10
  8.9600
 20
  8.4300
 30
0.0
 40
  0.0500
 1
6A
 0
LINE
 8
PARTS
 10
  8.8000
 20
  8.3000
 30
0.0
 11
  9.1000
 21
  8.3000
 31
0.0
 0
TEXT
 8
PARTS
 10
  9.1900
 20
  8.2750
 30
0.0
 40
  0.0500
 1
A1
 0
TEXT
 8
PARTS
 10
  8.9600
 20
  8.3300
 30
0.0
 40
  0.0500
 1
7A
 0
LINE
 8
PARTS
 10
  8.8000
 20
  8.2000
 30
0.0
 11
  9.1000
 21
  8.2000
 31
0.0
 0
TEXT
 8
PARTS
 10
  9.1900
 20
  8.1750
 30
0.0
 40
  0.0500
 1
A2
 0
TEXT
 8
PARTS
 10
  8.9600
 20
  8.2300
 30
0.0
 40
  0.0500
 1
8A
 0
LINE
 8
PARTS
 10
  8.8000
 20
  8.1000
 30
0.0
 11
  9.1000
 21
  8.1000
 31
0.0
 0
TEXT
 8
PARTS
 10
  9.1900
 20
  8.0750
 30
0.0
 40
  0.0500
 1
A3
 0
TEXT
 8
PARTS
 10
  8.9600
 20
  8.1300
 30
0.0
 40
  0.0500
 1
9A
 0
LINE
 8
PARTS
 10
  8.8000
 20
  8.0000
 30
0.0
 11
  9.1000
 21
  8.0000
 31
0.0
 0
TEXT
 8
PARTS
 10
  9.1900
 20
  7.9750
 30
0.0
 40
  0.0500
 1
A4
 0
TEXT
 8
PARTS
 10
  8.9200
 20
  8.0300
 30
0.0
 40
  0.0500
 1
10A
 0
LINE
 8
PARTS
 10
  8.8000
 20
  7.9000
 30
0.0
 11
  9.1000
 21
  7.9000
 31
0.0
 0
TEXT
 8
PARTS
 10
  9.1900
 20
  7.8750
 30
0.0
 40
  0.0500
 1
A5
 0
TEXT
 8
PARTS
 10
  8.9200
 20
  7.9300
 30
0.0
 40
  0.0500
 1
11A
 0
LINE
 8
PARTS
 10
  8.8000
 20
  7.8000
 30
0.0
 11
  9.1000
 21
  7.8000
 31
0.0
 0
TEXT
 8
PARTS
 10
  9.1900
 20
  7.7750
 30
0.0
 40
  0.0500
 1
A6
 0
TEXT
 8
PARTS
 10
  8.9200
 20
  7.8300
 30
0.0
 40
  0.0500
 1
12A
 0
LINE
 8
PARTS
 10
  8.8000
 20
  7.7000
 30
0.0
 11
  9.1000
 21
  7.7000
 31
0.0
 0
TEXT
 8
PARTS
 10
  9.1900
 20
  7.6750
 30
0.0
 40
  0.0500
 1
A7
 0
TEXT
 8
PARTS
 10
  8.9200
 20
  7.7300
 30
0.0
 40
  0.0500
 1
13A
 0
LINE
 8
PARTS
 10
  8.8000
 20
  7.6000
 30
0.0
 11
  9.1000
 21
  7.6000
 31
0.0
 0
TEXT
 8
PARTS
 10
  9.1900
 20
  7.5750
 30
0.0
 40
  0.0500
 1
A8
 0
TEXT
 8
PARTS
 10
  8.9200
 20
  7.6300
 30
0.0
 40
  0.0500
 1
14A
 0
LINE
 8
PARTS
 10
  8.8000
 20
  7.5000
 30
0.0
 11
  9.1000
 21
  7.5000
 31
0.0
 0
TEXT
 8
PARTS
 10
  9.1900
 20
  7.4750
 30
0.0
 40
  0.0500
 1
A9
 0
TEXT
 8
PARTS
 10
  8.9200
 20
  7.5300
 30
0.0
 40
  0.0500
 1
15A
 0
LINE
 8
PARTS
 10
  8.8000
 20
  7.4000
 30
0.0
 11
  9.1000
 21
  7.4000
 31
0.0
 0
TEXT
 8
PARTS
 10
  9.1900
 20
  7.3750
 30
0.0
 40
  0.0500
 1
A10
 0
TEXT
 8
PARTS
 10
  8.9200
 20
  7.4300
 30
0.0
 40
  0.0500
 1
16A
 0
LINE
 8
PARTS
 10
  8.8000
 20
  7.3000
 30
0.0
 11
  9.1000
 21
  7.3000
 31
0.0
 0
TEXT
 8
PARTS
 10
  9.1900
 20
  7.2750
 30
0.0
 40
  0.0500
 1
A11
 0
TEXT
 8
PARTS
 10
  8.9200
 20
  7.3300
 30
0.0
 40
  0.0500
 1
17A
 0
LINE
 8
PARTS
 10
  8.8000
 20
  7.2000
 30
0.0
 11
  9.1000
 21
  7.2000
 31
0.0
 0
TEXT
 8
PARTS
 10
  9.1900
 20
  7.1750
 30
0.0
 40
  0.0500
 1
A12
 0
TEXT
 8
PARTS
 10
  8.9200
 20
  7.2300
 30
0.0
 40
  0.0500
 1
18A
 0
LINE
 8
PARTS
 10
  8.8000
 20
  7.1000
 30
0.0
 11
  9.1000
 21
  7.1000
 31
0.0
 0
TEXT
 8
PARTS
 10
  9.1900
 20
  7.0750
 30
0.0
 40
  0.0500
 1
A13
 0
TEXT
 8
PARTS
 10
  8.9200
 20
  7.1300
 30
0.0
 40
  0.0500
 1
19A
 0
LINE
 8
PARTS
 10
  8.8000
 20
  7.0000
 30
0.0
 11
  9.1000
 21
  7.0000
 31
0.0
 0
TEXT
 8
PARTS
 10
  9.1900
 20
  6.9750
 30
0.0
 40
  0.0500
 1
A14
 0
TEXT
 8
PARTS
 10
  8.9200
 20
  7.0300
 30
0.0
 40
  0.0500
 1
20A
 0
LINE
 8
PARTS
 10
  8.8000
 20
  6.9000
 30
0.0
 11
  9.1000
 21
  6.9000
 31
0.0
 0
TEXT
 8
PARTS
 10
  9.1900
 20
  6.8750
 30
0.0
 40
  0.0500
 1
A15
 0
TEXT
 8
PARTS
 10
  8.9200
 20
  6.9300
 30
0.0
 40
  0.0500
 1
21A
 0
LINE
 8
PARTS
 10
  8.8000
 20
  6.8000
 30
0.0
 11
  9.1000
 21
  6.8000
 31
0.0
 0
TEXT
 8
PARTS
 10
  9.1900
 20
  6.7750
 30
0.0
 40
  0.0500
 1
A16
 0
TEXT
 8
PARTS
 10
  8.9200
 20
  6.8300
 30
0.0
 40
  0.0500
 1
22A
 0
LINE
 8
PARTS
 10
  8.8000
 20
  6.7000
 30
0.0
 11
  9.1000
 21
  6.7000
 31
0.0
 0
TEXT
 8
PARTS
 10
  9.1900
 20
  6.6750
 30
0.0
 40
  0.0500
 1
A17
 0
TEXT
 8
PARTS
 10
  8.9200
 20
  6.7300
 30
0.0
 40
  0.0500
 1
23A
 0
LINE
 8
PARTS
 10
  8.8000
 20
  6.6000
 30
0.0
 11
  9.1000
 21
  6.6000
 31
0.0
 0
TEXT
 8
PARTS
 10
  9.1900
 20
  6.5750
 30
0.0
 40
  0.0500
 1
A18
 0
TEXT
 8
PARTS
 10
  8.9200
 20
  6.6300
 30
0.0
 40
  0.0500
 1
24A
 0
LINE
 8
PARTS
 10
  8.8000
 20
  6.5000
 30
0.0
 11
  9.1000
 21
  6.5000
 31
0.0
 0
TEXT
 8
PARTS
 10
  9.1900
 20
  6.4750
 30
0.0
 40
  0.0500
 1
NC
 0
TEXT
 8
PARTS
 10
  8.9200
 20
  6.5300
 30
0.0
 40
  0.0500
 1
25A
 0
LINE
 8
PARTS
 10
  8.8000
 20
  6.4000
 30
0.0
 11
  9.1000
 21
  6.4000
 31
0.0
 0
TEXT
 8
PARTS
 10
  9.1900
 20
  6.3750
 30
0.0
 40
  0.0500
 1
NC
 0
TEXT
 8
PARTS
 10
  8.9200
 20
  6.4300
 30
0.0
 40
  0.0500
 1
26A
 0
LINE
 8
PARTS
 10
  8.8000
 20
  6.3000
 30
0.0
 11
  9.1000
 21
  6.3000
 31
0.0
 0
TEXT
 8
PARTS
 10
  9.1900
 20
  6.2750
 30
0.0
 40
  0.0500
 1
13-24 V DI
 0
TEXT
 8
PARTS
 10
  8.9200
 20
  6.3300
 30
0.0
 40
  0.0500
 1
27A
 0
LINE
 8
PARTS
 10
  8.8000
 20
  6.2000
 30
0.0
 11
  9.1000
 21
  6.2000
 31
0.0
 0
TEXT
 8
PARTS
 10
  9.1900
 20
  6.1750
 30
0.0
 40
  0.0500
 1
VSTBY
 0
TEXT
 8
PARTS
 10
  8.9200
 20
  6.2300
 30
0.0
 40
  0.0500
 1
28A
 0
LINE
 8
PARTS
 10
  8.8000
 20
  6.1000
 30
0.0
 11
  9.1000
 21
  6.1000
 31
0.0
 0
TEXT
 8
PARTS
 10
  9.1900
 20
  6.0750
 30
0.0
 40
  0.0500
 1
13-24 V DI2
 0
TEXT
 8
PARTS
 10
  8.9200
 20
  6.1300
 30
0.0
 40
  0.0500
 1
29A
 0
LINE
 8
PARTS
 10
  8.8000
 20
  6.0000
 30
0.0
 11
  9.1000
 21
  6.0000
 31
0.0
 0
TEXT
 8
PARTS
 10
  9.1900
 20
  5.9750
 30
0.0
 40
  0.0500
 1
T2CLK
 0
TEXT
 8
PARTS
 10
  8.9200
 20
  6.0300
 30
0.0
 40
  0.0500
 1
30A
 0
LINE
 8
PARTS
 10
  8.8000
 20
  5.9000
 30
0.0
 11
  9.1000
 21
  5.9000
 31
0.0
 0
TEXT
 8
PARTS
 10
  9.1900
 20
  5.8750
 30
0.0
 40
  0.0500
 1
TP15
 0
TEXT
 8
PARTS
 10
  8.9200
 20
  5.9300
 30
0.0
 40
  0.0500
 1
31A
 0
LINE
 8
PARTS
 10
  8.8000
 20
  5.8000
 30
0.0
 11
  9.1000
 21
  5.8000
 31
0.0
 0
TEXT
 8
PARTS
 10
  9.1900
 20
  5.7750
 30
0.0
 40
  0.0500
 1
TP14
 0
TEXT
 8
PARTS
 10
  8.9200
 20
  5.8300
 30
0.0
 40
  0.0500
 1
32A
 0
LINE
 8
PARTS
 10
  8.8000
 20
  5.7000
 30
0.0
 11
  9.1000
 21
  5.7000
 31
0.0
 0
TEXT
 8
PARTS
 10
  9.1900
 20
  5.6750
 30
0.0
 40
  0.0500
 1
TP13
 0
TEXT
 8
PARTS
 10
  8.9200
 20
  5.7300
 30
0.0
 40
  0.0500
 1
33A
 0
LINE
 8
PARTS
 10
  8.8000
 20
  5.6000
 30
0.0
 11
  9.1000
 21
  5.6000
 31
0.0
 0
TEXT
 8
PARTS
 10
  9.1900
 20
  5.5750
 30
0.0
 40
  0.0500
 1
TP12
 0
TEXT
 8
PARTS
 10
  8.9200
 20
  5.6300
 30
0.0
 40
  0.0500
 1
34A
 0
LINE
 8
PARTS
 10
  8.8000
 20
  5.5000
 30
0.0
 11
  9.1000
 21
  5.5000
 31
0.0
 0
TEXT
 8
PARTS
 10
  9.1900
 20
  5.4750
 30
0.0
 40
  0.0500
 1
TP11
 0
TEXT
 8
PARTS
 10
  8.9200
 20
  5.5300
 30
0.0
 40
  0.0500
 1
35A
 0
LINE
 8
PARTS
 10
  8.8000
 20
  5.4000
 30
0.0
 11
  9.1000
 21
  5.4000
 31
0.0
 0
TEXT
 8
PARTS
 10
  9.1900
 20
  5.3750
 30
0.0
 40
  0.0500
 1
TP10
 0
TEXT
 8
PARTS
 10
  8.9200
 20
  5.4300
 30
0.0
 40
  0.0500
 1
36A
 0
LINE
 8
PARTS
 10
  8.8000
 20
  5.3000
 30
0.0
 11
  9.1000
 21
  5.3000
 31
0.0
 0
TEXT
 8
PARTS
 10
  9.1900
 20
  5.2750
 30
0.0
 40
  0.0500
 1
TP9
 0
TEXT
 8
PARTS
 10
  8.9200
 20
  5.3300
 30
0.0
 40
  0.0500
 1
37A
 0
LINE
 8
PARTS
 10
  8.8000
 20
  5.2000
 30
0.0
 11
  9.1000
 21
  5.2000
 31
0.0
 0
TEXT
 8
PARTS
 10
  9.1900
 20
  5.1750
 30
0.0
 40
  0.0500
 1
TP8
 0
TEXT
 8
PARTS
 10
  8.9200
 20
  5.2300
 30
0.0
 40
  0.0500
 1
38A
 0
LINE
 8
PARTS
 10
  8.8000
 20
  5.1000
 30
0.0
 11
  9.1000
 21
  5.1000
 31
0.0
 0
TEXT
 8
PARTS
 10
  9.1900
 20
  5.0750
 30
0.0
 40
  0.0500
 1
TP7
 0
TEXT
 8
PARTS
 10
  8.9200
 20
  5.1300
 30
0.0
 40
  0.0500
 1
39A
 0
LINE
 8
PARTS
 10
  8.8000
 20
  5.0000
 30
0.0
 11
  9.1000
 21
  5.0000
 31
0.0
 0
TEXT
 8
PARTS
 10
  9.1900
 20
  4.9750
 30
0.0
 40
  0.0500
 1
TP6
 0
TEXT
 8
PARTS
 10
  8.9200
 20
  5.0300
 30
0.0
 40
  0.0500
 1
40A
 0
LINE
 8
PARTS
 10
  8.8000
 20
  4.9000
 30
0.0
 11
  9.1000
 21
  4.9000
 31
0.0
 0
TEXT
 8
PARTS
 10
  9.1900
 20
  4.8750
 30
0.0
 40
  0.0500
 1
TP5
 0
TEXT
 8
PARTS
 10
  8.9200
 20
  4.9300
 30
0.0
 40
  0.0500
 1
41A
 0
LINE
 8
PARTS
 10
  8.8000
 20
  4.8000
 30
0.0
 11
  9.1000
 21
  4.8000
 31
0.0
 0
TEXT
 8
PARTS
 10
  9.1900
 20
  4.7750
 30
0.0
 40
  0.0500
 1
TP4
 0
TEXT
 8
PARTS
 10
  8.9200
 20
  4.8300
 30
0.0
 40
  0.0500
 1
42A
 0
LINE
 8
PARTS
 10
  8.8000
 20
  4.7000
 30
0.0
 11
  9.1000
 21
  4.7000
 31
0.0
 0
TEXT
 8
PARTS
 10
  9.1900
 20
  4.6750
 30
0.0
 40
  0.0500
 1
TP3
 0
TEXT
 8
PARTS
 10
  8.9200
 20
  4.7300
 30
0.0
 40
  0.0500
 1
43A
 0
LINE
 8
PARTS
 10
  8.8000
 20
  4.6000
 30
0.0
 11
  9.1000
 21
  4.6000
 31
0.0
 0
TEXT
 8
PARTS
 10
  9.1900
 20
  4.5750
 30
0.0
 40
  0.0500
 1
TP2
 0
TEXT
 8
PARTS
 10
  8.9200
 20
  4.6300
 30
0.0
 40
  0.0500
 1
44A
 0
LINE
 8
PARTS
 10
  8.8000
 20
  4.5000
 30
0.0
 11
  9.1000
 21
  4.5000
 31
0.0
 0
TEXT
 8
PARTS
 10
  9.1900
 20
  4.4750
 30
0.0
 40
  0.0500
 1
TP1
 0
TEXT
 8
PARTS
 10
  8.9200
 20
  4.5300
 30
0.0
 40
  0.0500
 1
45A
 0
LINE
 8
PARTS
 10
  8.8000
 20
  4.4000
 30
0.0
 11
  9.1000
 21
  4.4000
 31
0.0
 0
TEXT
 8
PARTS
 10
  9.1900
 20
  4.3750
 30
0.0
 40
  0.0500
 1
TP0
 0
TEXT
 8
PARTS
 10
  8.9200
 20
  4.4300
 30
0.0
 40
  0.0500
 1
46A
 0
LINE
 8
PARTS
 10
  8.8000
 20
  4.3000
 30
0.0
 11
  9.1000
 21
  4.3000
 31
0.0
 0
TEXT
 8
PARTS
 10
  9.1900
 20
  4.2750
 30
0.0
 40
  0.0500
 1
MOSI
 0
TEXT
 8
PARTS
 10
  8.9200
 20
  4.3300
 30
0.0
 40
  0.0500
 1
47A
 0
LINE
 8
PARTS
 10
  8.8000
 20
  4.2000
 30
0.0
 11
  9.1000
 21
  4.2000
 31
0.0
 0
TEXT
 8
PARTS
 10
  9.1900
 20
  4.1750
 30
0.0
 40
  0.0500
 1
MISO
 0
TEXT
 8
PARTS
 10
  8.9200
 20
  4.2300
 30
0.0
 40
  0.0500
 1
48A
 0
LINE
 8
PARTS
 10
  8.8000
 20
  4.1000
 30
0.0
 11
  9.1000
 21
  4.1000
 31
0.0
 0
TEXT
 8
PARTS
 10
  9.1900
 20
  4.0750
 30
0.0
 40
  0.0500
 1
PCS0
 0
TEXT
 8
PARTS
 10
  8.9200
 20
  4.1300
 30
0.0
 40
  0.0500
 1
49A
 0
LINE
 8
PARTS
 10
  8.8000
 20
  4.0000
 30
0.0
 11
  9.1000
 21
  4.0000
 31
0.0
 0
TEXT
 8
PARTS
 10
  9.1900
 20
  3.9750
 30
0.0
 40
  0.0500
 1
SCK
 0
TEXT
 8
PARTS
 10
  8.9200
 20
  4.0300
 30
0.0
 40
  0.0500
 1
50A
 0
LINE
 8
PARTS
 10
  8.8000
 20
  3.9000
 30
0.0
 11
  9.1000
 21
  3.9000
 31
0.0
 0
TEXT
 8
PARTS
 10
  9.1900
 20
  3.8750
 30
0.0
 40
  0.0500
 1
PCS2
 0
TEXT
 8
PARTS
 10
  8.9200
 20
  3.9300
 30
0.0
 40
  0.0500
 1
51A
 0
LINE
 8
PARTS
 10
  8.8000
 20
  3.8000
 30
0.0
 11
  9.1000
 21
  3.8000
 31
0.0
 0
TEXT
 8
PARTS
 10
  9.1900
 20
  3.7750
 30
0.0
 40
  0.0500
 1
PCS1
 0
TEXT
 8
PARTS
 10
  8.9200
 20
  3.8300
 30
0.0
 40
  0.0500
 1
52A
 0
LINE
 8
PARTS
 10
  8.8000
 20
  3.7000
 30
0.0
 11
  9.1000
 21
  3.7000
 31
0.0
 0
TEXT
 8
PARTS
 10
  9.1900
 20
  3.6750
 30
0.0
 40
  0.0500
 1
TXD
 0
TEXT
 8
PARTS
 10
  8.9200
 20
  3.7300
 30
0.0
 40
  0.0500
 1
53A
 0
LINE
 8
PARTS
 10
  8.8000
 20
  3.6000
 30
0.0
 11
  9.1000
 21
  3.6000
 31
0.0
 0
TEXT
 8
PARTS
 10
  9.1900
 20
  3.5750
 30
0.0
 40
  0.0500
 1
PCS3
 0
TEXT
 8
PARTS
 10
  8.9200
 20
  3.6300
 30
0.0
 40
  0.0500
 1
54A
 0
LINE
 8
PARTS
 10
  8.8000
 20
  3.5000
 30
0.0
 11
  9.1000
 21
  3.5000
 31
0.0
 0
TEXT
 8
PARTS
 10
  9.1900
 20
  3.4750
 30
0.0
 40
  0.0500
 1
DSCLK
 0
TEXT
 8
PARTS
 10
  8.9200
 20
  3.5300
 30
0.0
 40
  0.0500
 1
55A
 0
LINE
 8
PARTS
 10
  8.8000
 20
  3.4000
 30
0.0
 11
  9.1000
 21
  3.4000
 31
0.0
 0
TEXT
 8
PARTS
 10
  9.1900
 20
  3.3750
 30
0.0
 40
  0.0500
 1
RXD
 0
TEXT
 8
PARTS
 10
  8.9200
 20
  3.4300
 30
0.0
 40
  0.0500
 1
56A
 0
LINE
 8
PARTS
 10
  8.8000
 20
  3.3000
 30
0.0
 11
  9.1000
 21
  3.3000
 31
0.0
 0
TEXT
 8
PARTS
 10
  9.1900
 20
  3.2750
 30
0.0
 40
  0.0500
 1
RESET
 0
TEXT
 8
PARTS
 10
  8.9200
 20
  3.3300
 30
0.0
 40
  0.0500
 1
57A
 0
LINE
 8
PARTS
 10
  8.8000
 20
  3.2000
 30
0.0
 11
  9.1000
 21
  3.2000
 31
0.0
 0
TEXT
 8
PARTS
 10
  9.1900
 20
  3.1750
 30
0.0
 40
  0.0500
 1
FREEZE
 0
TEXT
 8
PARTS
 10
  8.9200
 20
  3.2300
 30
0.0
 40
  0.0500
 1
58A
 0
LINE
 8
PARTS
 10
  8.8000
 20
  3.1000
 30
0.0
 11
  9.1000
 21
  3.1000
 31
0.0
 0
TEXT
 8
PARTS
 10
  9.1900
 20
  3.0750
 30
0.0
 40
  0.0500
 1
IPIPE
 0
TEXT
 8
PARTS
 10
  8.9200
 20
  3.1300
 30
0.0
 40
  0.0500
 1
59A
 0
LINE
 8
PARTS
 10
  8.8000
 20
  3.0000
 30
0.0
 11
  9.1000
 21
  3.0000
 31
0.0
 0
TEXT
 8
PARTS
 10
  9.1900
 20
  2.9750
 30
0.0
 40
  0.0500
 1
IFETCH
 0
TEXT
 8
PARTS
 10
  8.9200
 20
  3.0300
 30
0.0
 40
  0.0500
 1
60A
 0
LINE
 8
PARTS
 10
  8.8000
 20
  2.9000
 30
0.0
 11
  9.1000
 21
  2.9000
 31
0.0
 0
TEXT
 8
PARTS
 10
  9.1900
 20
  2.8750
 30
0.0
 40
  0.0500
 1
+5
 0
TEXT
 8
PARTS
 10
  8.9200
 20
  2.9300
 30
0.0
 40
  0.0500
 1
61A
 0
LINE
 8
PARTS
 10
  8.8000
 20
  2.8000
 30
0.0
 11
  9.1000
 21
  2.8000
 31
0.0
 0
TEXT
 8
PARTS
 10
  9.1900
 20
  2.7750
 30
0.0
 40
  0.0500
 1
+5
 0
TEXT
 8
PARTS
 10
  8.9200
 20
  2.8300
 30
0.0
 40
  0.0500
 1
62A
 0
LINE
 8
PARTS
 10
  8.8000
 20
  2.7000
 30
0.0
 11
  9.1000
 21
  2.7000
 31
0.0
 0
TEXT
 8
PARTS
 10
  9.1900
 20
  2.6750
 30
0.0
 40
  0.0500
 1
GND
 0
TEXT
 8
PARTS
 10
  8.9200
 20
  2.7300
 30
0.0
 40
  0.0500
 1
63A
 0
LINE
 8
PARTS
 10
  8.8000
 20
  2.6000
 30
0.0
 11
  9.1000
 21
  2.6000
 31
0.0
 0
TEXT
 8
PARTS
 10
  9.1900
 20
  2.5750
 30
0.0
 40
  0.0500
 1
GND
 0
TEXT
 8
PARTS
 10
  8.9200
 20
  2.6300
 30
0.0
 40
  0.0500
 1
64A
 0
LINE
 8
PARTS
 10
 10.8000
 20
  8.9000
 30
0.0
 11
 10.5000
 21
  8.9000
 31
0.0
 0
TEXT
 8
PARTS
 10
 10.2900
 20
  8.8750
 30
0.0
 40
  0.0500
 1
GND
 0
TEXT
 8
PARTS
 10
 10.5600
 20
  8.9300
 30
0.0
 40
  0.0500
 1
1
 0
LINE
 8
PARTS
 10
 10.8000
 20
  8.8000
 30
0.0
 11
 10.5000
 21
  8.8000
 31
0.0
 0
TEXT
 8
PARTS
 10
 10.2900
 20
  8.7750
 30
0.0
 40
  0.0500
 1
GND
 0
TEXT
 8
PARTS
 10
 10.5600
 20
  8.8300
 30
0.0
 40
  0.0500
 1
2
 0
LINE
 8
PARTS
 10
 10.8000
 20
  8.7000
 30
0.0
 11
 10.5000
 21
  8.7000
 31
0.0
 0
TEXT
 8
PARTS
 10
 10.3300
 20
  8.6750
 30
0.0
 40
  0.0500
 1
+5
 0
TEXT
 8
PARTS
 10
 10.5600
 20
  8.7300
 30
0.0
 40
  0.0500
 1
3
 0
LINE
 8
PARTS
 10
 10.8000
 20
  8.6000
 30
0.0
 11
 10.5000
 21
  8.6000
 31
0.0
 0
TEXT
 8
PARTS
 10
 10.3300
 20
  8.5750
 30
0.0
 40
  0.0500
 1
+5
 0
TEXT
 8
PARTS
 10
 10.5600
 20
  8.6300
 30
0.0
 40
  0.0500
 1
4
 0
LINE
 8
PARTS
 10
 10.8000
 20
  8.5000
 30
0.0
 11
 10.5000
 21
  8.5000
 31
0.0
 0
TEXT
 8
PARTS
 10
 10.3300
 20
  8.4750
 30
0.0
 40
  0.0500
 1
D1
 0
TEXT
 8
PARTS
 10
 10.5600
 20
  8.5300
 30
0.0
 40
  0.0500
 1
5
 0
LINE
 8
PARTS
 10
 10.8000
 20
  8.4000
 30
0.0
 11
 10.5000
 21
  8.4000
 31
0.0
 0
TEXT
 8
PARTS
 10
 10.3300
 20
  8.3750
 30
0.0
 40
  0.0500
 1
D0
 0
TEXT
 8
PARTS
 10
 10.5600
 20
  8.4300
 30
0.0
 40
  0.0500
 1
6
 0
LINE
 8
PARTS
 10
 10.8000
 20
  8.3000
 30
0.0
 11
 10.5000
 21
  8.3000
 31
0.0
 0
TEXT
 8
PARTS
 10
 10.3300
 20
  8.2750
 30
0.0
 40
  0.0500
 1
D3
 0
TEXT
 8
PARTS
 10
 10.5600
 20
  8.3300
 30
0.0
 40
  0.0500
 1
7
 0
LINE
 8
PARTS
 10
 10.8000
 20
  8.2000
 30
0.0
 11
 10.5000
 21
  8.2000
 31
0.0
 0
TEXT
 8
PARTS
 10
 10.3300
 20
  8.1750
 30
0.0
 40
  0.0500
 1
D2
 0
TEXT
 8
PARTS
 10
 10.5600
 20
  8.2300
 30
0.0
 40
  0.0500
 1
8
 0
LINE
 8
PARTS
 10
 10.8000
 20
  8.1000
 30
0.0
 11
 10.5000
 21
  8.1000
 31
0.0
 0
TEXT
 8
PARTS
 10
 10.3300
 20
  8.0750
 30
0.0
 40
  0.0500
 1
D5
 0
TEXT
 8
PARTS
 10
 10.5600
 20
  8.1300
 30
0.0
 40
  0.0500
 1
9
 0
LINE
 8
PARTS
 10
 10.8000
 20
  8.0000
 30
0.0
 11
 10.5000
 21
  8.0000
 31
0.0
 0
TEXT
 8
PARTS
 10
 10.3300
 20
  7.9750
 30
0.0
 40
  0.0500
 1
D4
 0
TEXT
 8
PARTS
 10
 10.5600
 20
  8.0300
 30
0.0
 40
  0.0500
 1
10
 0
LINE
 8
PARTS
 10
 10.8000
 20
  7.9000
 30
0.0
 11
 10.5000
 21
  7.9000
 31
0.0
 0
TEXT
 8
PARTS
 10
 10.3300
 20
  7.8750
 30
0.0
 40
  0.0500
 1
D7
 0
TEXT
 8
PARTS
 10
 10.5600
 20
  7.9300
 30
0.0
 40
  0.0500
 1
11
 0
LINE
 8
PARTS
 10
 10.8000
 20
  7.8000
 30
0.0
 11
 10.5000
 21
  7.8000
 31
0.0
 0
TEXT
 8
PARTS
 10
 10.3300
 20
  7.7750
 30
0.0
 40
  0.0500
 1
D6
 0
TEXT
 8
PARTS
 10
 10.5600
 20
  7.8300
 30
0.0
 40
  0.0500
 1
12
 0
LINE
 8
PARTS
 10
 10.8000
 20
  7.7000
 30
0.0
 11
 10.5000
 21
  7.7000
 31
0.0
 0
TEXT
 8
PARTS
 10
 10.3300
 20
  7.6750
 30
0.0
 40
  0.0500
 1
D9
 0
TEXT
 8
PARTS
 10
 10.5600
 20
  7.7300
 30
0.0
 40
  0.0500
 1
13
 0
LINE
 8
PARTS
 10
 10.8000
 20
  7.6000
 30
0.0
 11
 10.5000
 21
  7.6000
 31
0.0
 0
TEXT
 8
PARTS
 10
 10.3300
 20
  7.5750
 30
0.0
 40
  0.0500
 1
D8
 0
TEXT
 8
PARTS
 10
 10.5600
 20
  7.6300
 30
0.0
 40
  0.0500
 1
14
 0
LINE
 8
PARTS
 10
 10.8000
 20
  7.5000
 30
0.0
 11
 10.5000
 21
  7.5000
 31
0.0
 0
TEXT
 8
PARTS
 10
 10.2900
 20
  7.4750
 30
0.0
 40
  0.0500
 1
D11
 0
TEXT
 8
PARTS
 10
 10.5600
 20
  7.5300
 30
0.0
 40
  0.0500
 1
15
 0
LINE
 8
PARTS
 10
 10.8000
 20
  7.4000
 30
0.0
 11
 10.5000
 21
  7.4000
 31
0.0
 0
TEXT
 8
PARTS
 10
 10.2900
 20
  7.3750
 30
0.0
 40
  0.0500
 1
D10
 0
TEXT
 8
PARTS
 10
 10.5600
 20
  7.4300
 30
0.0
 40
  0.0500
 1
16
 0
LINE
 8
PARTS
 10
 10.8000
 20
  7.3000
 30
0.0
 11
 10.5000
 21
  7.3000
 31
0.0
 0
TEXT
 8
PARTS
 10
 10.2900
 20
  7.2750
 30
0.0
 40
  0.0500
 1
D13
 0
TEXT
 8
PARTS
 10
 10.5600
 20
  7.3300
 30
0.0
 40
  0.0500
 1
17
 0
LINE
 8
PARTS
 10
 10.8000
 20
  7.2000
 30
0.0
 11
 10.5000
 21
  7.2000
 31
0.0
 0
TEXT
 8
PARTS
 10
 10.2900
 20
  7.1750
 30
0.0
 40
  0.0500
 1
D12
 0
TEXT
 8
PARTS
 10
 10.5600
 20
  7.2300
 30
0.0
 40
  0.0500
 1
18
 0
LINE
 8
PARTS
 10
 10.8000
 20
  7.1000
 30
0.0
 11
 10.5000
 21
  7.1000
 31
0.0
 0
TEXT
 8
PARTS
 10
 10.2900
 20
  7.0750
 30
0.0
 40
  0.0500
 1
D15
 0
TEXT
 8
PARTS
 10
 10.5600
 20
  7.1300
 30
0.0
 40
  0.0500
 1
19
 0
LINE
 8
PARTS
 10
 10.8000
 20
  7.0000
 30
0.0
 11
 10.5000
 21
  7.0000
 31
0.0
 0
TEXT
 8
PARTS
 10
 10.2900
 20
  6.9750
 30
0.0
 40
  0.0500
 1
D14
 0
TEXT
 8
PARTS
 10
 10.5600
 20
  7.0300
 30
0.0
 40
  0.0500
 1
20
 0
LINE
 8
PARTS
 10
 10.8000
 20
  6.9000
 30
0.0
 11
 10.5000
 21
  6.9000
 31
0.0
 0
TEXT
 8
PARTS
 10
 10.1700
 20
  6.8750
 30
0.0
 40
  0.0500
 1
RXD DI
 0
TEXT
 8
PARTS
 10
 10.5600
 20
  6.9300
 30
0.0
 40
  0.0500
 1
21
 0
LINE
 8
PARTS
 10
 10.8000
 20
  6.8000
 30
0.0
 11
 10.5000
 21
  6.8000
 31
0.0
 0
TEXT
 8
PARTS
 10
 10.1700
 20
  6.7750
 30
0.0
 40
  0.0500
 1
TXD DI
 0
TEXT
 8
PARTS
 10
 10.5600
 20
  6.8300
 30
0.0
 40
  0.0500
 1
22
 0
LINE
 8
PARTS
 10
 10.8000
 20
  6.7000
 30
0.0
 11
 10.5000
 21
  6.7000
 31
0.0
 0
TEXT
 8
PARTS
 10
 10.0900
 20
  6.6750
 30
0.0
 40
  0.0500
 1
MOD B DI
 0
TEXT
 8
PARTS
 10
 10.5600
 20
  6.7300
 30
0.0
 40
  0.0500
 1
23
 0
LINE
 8
PARTS
 10
 10.8000
 20
  6.6000
 30
0.0
 11
 10.5000
 21
  6.6000
 31
0.0
 0
TEXT
 8
PARTS
 10
 10.1300
 20
  6.5750
 30
0.0
 40
  0.0500
 1
XMT 232
 0
TEXT
 8
PARTS
 10
 10.5600
 20
  6.6300
 30
0.0
 40
  0.0500
 1
24
 0
LINE
 8
PARTS
 10
 10.8000
 20
  6.5000
 30
0.0
 11
 10.5000
 21
  6.5000
 31
0.0
 0
TEXT
 8
PARTS
 10
 10.1700
 20
  6.4750
 30
0.0
 40
  0.0500
 1
CSBOOT
 0
TEXT
 8
PARTS
 10
 10.5600
 20
  6.5300
 30
0.0
 40
  0.0500
 1
25
 0
LINE
 8
PARTS
 10
 10.8000
 20
  6.4000
 30
0.0
 11
 10.5000
 21
  6.4000
 31
0.0
 0
TEXT
 8
PARTS
 10
 10.1300
 20
  6.3750
 30
0.0
 40
  0.0500
 1
RCV 232
 0
TEXT
 8
PARTS
 10
 10.5600
 20
  6.4300
 30
0.0
 40
  0.0500
 1
26
 0
LINE
 8
PARTS
 10
 10.8000
 20
  6.3000
 30
0.0
 11
 10.5000
 21
  6.3000
 31
0.0
 0
TEXT
 8
PARTS
 10
 10.2900
 20
  6.2750
 30
0.0
 40
  0.0500
 1
R/W
 0
TEXT
 8
PARTS
 10
 10.5600
 20
  6.3300
 30
0.0
 40
  0.0500
 1
27
 0
LINE
 8
PARTS
 10
 10.8000
 20
  6.2000
 30
0.0
 11
 10.5000
 21
  6.2000
 31
0.0
 0
TEXT
 8
PARTS
 10
 10.2100
 20
  6.1750
 30
0.0
 40
  0.0500
 1
MODCK
 0
TEXT
 8
PARTS
 10
 10.5600
 20
  6.2300
 30
0.0
 40
  0.0500
 1
28
 0
LINE
 8
PARTS
 10
 10.8000
 20
  6.1000
 30
0.0
 11
 10.5000
 21
  6.1000
 31
0.0
 0
TEXT
 8
PARTS
 10
 10.2100
 20
  6.0750
 30
0.0
 40
  0.0500
 1
TSTME
 0
TEXT
 8
PARTS
 10
 10.5600
 20
  6.1300
 30
0.0
 40
  0.0500
 1
29
 0
LINE
 8
PARTS
 10
 10.8000
 20
  6.0000
 30
0.0
 11
 10.5000
 21
  6.0000
 31
0.0
 0
TEXT
 8
PARTS
 10
 10.2500
 20
  5.9750
 30
0.0
 40
  0.0500
 1
CS10
 0
TEXT
 8
PARTS
 10
 10.5600
 20
  6.0300
 30
0.0
 40
  0.0500
 1
30
 0
LINE
 8
PARTS
 10
 10.8000
 20
  5.9000
 30
0.0
 11
 10.5000
 21
  5.9000
 31
0.0
 0
TEXT
 8
PARTS
 10
 10.2900
 20
  5.8750
 30
0.0
 40
  0.0500
 1
CS9
 0
TEXT
 8
PARTS
 10
 10.5600
 20
  5.9300
 30
0.0
 40
  0.0500
 1
31
 0
LINE
 8
PARTS
 10
 10.8000
 20
  5.8000
 30
0.0
 11
 10.5000
 21
  5.8000
 31
0.0
 0
TEXT
 8
PARTS
 10
 10.2900
 20
  5.7750
 30
0.0
 40
  0.0500
 1
CS8
 0
TEXT
 8
PARTS
 10
 10.5600
 20
  5.8300
 30
0.0
 40
  0.0500
 1
32
 0
LINE
 8
PARTS
 10
 10.8000
 20
  5.7000
 30
0.0
 11
 10.5000
 21
  5.7000
 31
0.0
 0
TEXT
 8
PARTS
 10
 10.2900
 20
  5.6750
 30
0.0
 40
  0.0500
 1
CS7
 0
TEXT
 8
PARTS
 10
 10.5600
 20
  5.7300
 30
0.0
 40
  0.0500
 1
33
 0
LINE
 8
PARTS
 10
 10.8000
 20
  5.6000
 30
0.0
 11
 10.5000
 21
  5.6000
 31
0.0
 0
TEXT
 8
PARTS
 10
 10.2900
 20
  5.5750
 30
0.0
 40
  0.0500
 1
CS6
 0
TEXT
 8
PARTS
 10
 10.5600
 20
  5.6300
 30
0.0
 40
  0.0500
 1
34
 0
LINE
 8
PARTS
 10
 10.8000
 20
  5.5000
 30
0.0
 11
 10.5000
 21
  5.5000
 31
0.0
 0
TEXT
 8
PARTS
 10
 10.2900
 20
  5.4750
 30
0.0
 40
  0.0500
 1
CS5
 0
TEXT
 8
PARTS
 10
 10.5600
 20
  5.5300
 30
0.0
 40
  0.0500
 1
35
 0
LINE
 8
PARTS
 10
 10.8000
 20
  5.4000
 30
0.0
 11
 10.5000
 21
  5.4000
 31
0.0
 0
TEXT
 8
PARTS
 10
 10.2900
 20
  5.3750
 30
0.0
 40
  0.0500
 1
CS4
 0
TEXT
 8
PARTS
 10
 10.5600
 20
  5.4300
 30
0.0
 40
  0.0500
 1
36
 0
LINE
 8
PARTS
 10
 10.8000
 20
  5.3000
 30
0.0
 11
 10.5000
 21
  5.3000
 31
0.0
 0
TEXT
 8
PARTS
 10
 10.2900
 20
  5.2750
 30
0.0
 40
  0.0500
 1
CS3
 0
TEXT
 8
PARTS
 10
 10.5600
 20
  5.3300
 30
0.0
 40
  0.0500
 1
37
 0
LINE
 8
PARTS
 10
 10.8000
 20
  5.2000
 30
0.0
 11
 10.5000
 21
  5.2000
 31
0.0
 0
TEXT
 8
PARTS
 10
 10.2900
 20
  5.1750
 30
0.0
 40
  0.0500
 1
CS2
 0
TEXT
 8
PARTS
 10
 10.5600
 20
  5.2300
 30
0.0
 40
  0.0500
 1
38
 0
LINE
 8
PARTS
 10
 10.8000
 20
  5.1000
 30
0.0
 11
 10.5000
 21
  5.1000
 31
0.0
 0
TEXT
 8
PARTS
 10
 10.2900
 20
  5.0750
 30
0.0
 40
  0.0500
 1
CS1
 0
TEXT
 8
PARTS
 10
 10.5600
 20
  5.1300
 30
0.0
 40
  0.0500
 1
39
 0
LINE
 8
PARTS
 10
 10.8000
 20
  5.0000
 30
0.0
 11
 10.5000
 21
  5.0000
 31
0.0
 0
TEXT
 8
PARTS
 10
 10.2900
 20
  4.9750
 30
0.0
 40
  0.0500
 1
CS0
 0
TEXT
 8
PARTS
 10
 10.5600
 20
  5.0300
 30
0.0
 40
  0.0500
 1
40
 0
LINE
 8
PARTS
 10
 10.8000
 20
  4.9000
 30
0.0
 11
 10.5000
 21
  4.9000
 31
0.0
 0
TEXT
 8
PARTS
 10
 10.2500
 20
  4.8750
 30
0.0
 40
  0.0500
 1
IRQ1
 0
TEXT
 8
PARTS
 10
 10.5600
 20
  4.9300
 30
0.0
 40
  0.0500
 1
41
 0
LINE
 8
PARTS
 10
 10.8000
 20
  4.8000
 30
0.0
 11
 10.5000
 21
  4.8000
 31
0.0
 0
TEXT
 8
PARTS
 10
 10.2500
 20
  4.7750
 30
0.0
 40
  0.0500
 1
IRQ2
 0
TEXT
 8
PARTS
 10
 10.5600
 20
  4.8300
 30
0.0
 40
  0.0500
 1
42
 0
LINE
 8
PARTS
 10
 10.8000
 20
  4.7000
 30
0.0
 11
 10.5000
 21
  4.7000
 31
0.0
 0
TEXT
 8
PARTS
 10
 10.2500
 20
  4.6750
 30
0.0
 40
  0.0500
 1
IRQ3
 0
TEXT
 8
PARTS
 10
 10.5600
 20
  4.7300
 30
0.0
 40
  0.0500
 1
43
 0
LINE
 8
PARTS
 10
 10.8000
 20
  4.6000
 30
0.0
 11
 10.5000
 21
  4.6000
 31
0.0
 0
TEXT
 8
PARTS
 10
 10.2500
 20
  4.5750
 30
0.0
 40
  0.0500
 1
IRQ4
 0
TEXT
 8
PARTS
 10
 10.5600
 20
  4.6300
 30
0.0
 40
  0.0500
 1
44
 0
LINE
 8
PARTS
 10
 10.8000
 20
  4.5000
 30
0.0
 11
 10.5000
 21
  4.5000
 31
0.0
 0
TEXT
 8
PARTS
 10
 10.2500
 20
  4.4750
 30
0.0
 40
  0.0500
 1
IRQ5
 0
TEXT
 8
PARTS
 10
 10.5600
 20
  4.5300
 30
0.0
 40
  0.0500
 1
45
 0
LINE
 8
PARTS
 10
 10.8000
 20
  4.4000
 30
0.0
 11
 10.5000
 21
  4.4000
 31
0.0
 0
TEXT
 8
PARTS
 10
 10.2500
 20
  4.3750
 30
0.0
 40
  0.0500
 1
IRQ6
 0
TEXT
 8
PARTS
 10
 10.5600
 20
  4.4300
 30
0.0
 40
  0.0500
 1
46
 0
LINE
 8
PARTS
 10
 10.8000
 20
  4.3000
 30
0.0
 11
 10.5000
 21
  4.3000
 31
0.0
 0
TEXT
 8
PARTS
 10
 10.2500
 20
  4.2750
 30
0.0
 40
  0.0500
 1
IRQ7
 0
TEXT
 8
PARTS
 10
 10.5600
 20
  4.3300
 30
0.0
 40
  0.0500
 1
47
 0
LINE
 8
PARTS
 10
 10.8000
 20
  4.2000
 30
0.0
 11
 10.5000
 21
  4.2000
 31
0.0
 0
TEXT
 8
PARTS
 10
 10.2500
 20
  4.1750
 30
0.0
 40
  0.0500
 1
BERR
 0
TEXT
 8
PARTS
 10
 10.5600
 20
  4.2300
 30
0.0
 40
  0.0500
 1
48
 0
LINE
 8
PARTS
 10
 10.8000
 20
  4.1000
 30
0.0
 11
 10.5000
 21
  4.1000
 31
0.0
 0
TEXT
 8
PARTS
 10
 10.1700
 20
  4.0750
 30
0.0
 40
  0.0500
 1
DSACK0
 0
TEXT
 8
PARTS
 10
 10.5600
 20
  4.1300
 30
0.0
 40
  0.0500
 1
49
 0
LINE
 8
PARTS
 10
 10.8000
 20
  4.0000
 30
0.0
 11
 10.5000
 21
  4.0000
 31
0.0
 0
TEXT
 8
PARTS
 10
 10.1700
 20
  3.9750
 30
0.0
 40
  0.0500
 1
DSCAK1
 0
TEXT
 8
PARTS
 10
 10.5600
 20
  4.0300
 30
0.0
 40
  0.0500
 1
50
 0
LINE
 8
PARTS
 10
 10.8000
 20
  3.9000
 30
0.0
 11
 10.5000
 21
  3.9000
 31
0.0
 0
TEXT
 8
PARTS
 10
 10.2500
 20
  3.8750
 30
0.0
 40
  0.0500
 1
AVEC
 0
TEXT
 8
PARTS
 10
 10.5600
 20
  3.9300
 30
0.0
 40
  0.0500
 1
51
 0
LINE
 8
PARTS
 10
 10.8000
 20
  3.8000
 30
0.0
 11
 10.5000
 21
  3.8000
 31
0.0
 0
TEXT
 8
PARTS
 10
 10.2900
 20
  3.7750
 30
0.0
 40
  0.0500
 1
RMC
 0
TEXT
 8
PARTS
 10
 10.5600
 20
  3.8300
 30
0.0
 40
  0.0500
 1
52
 0
LINE
 8
PARTS
 10
 10.8000
 20
  3.7000
 30
0.0
 11
 10.5000
 21
  3.7000
 31
0.0
 0
TEXT
 8
PARTS
 10
 10.3300
 20
  3.6750
 30
0.0
 40
  0.0500
 1
DS
 0
TEXT
 8
PARTS
 10
 10.5600
 20
  3.7300
 30
0.0
 40
  0.0500
 1
53
 0
LINE
 8
PARTS
 10
 10.8000
 20
  3.6000
 30
0.0
 11
 10.5000
 21
  3.6000
 31
0.0
 0
TEXT
 8
PARTS
 10
 10.3300
 20
  3.5750
 30
0.0
 40
  0.0500
 1
AS
 0
TEXT
 8
PARTS
 10
 10.5600
 20
  3.6300
 30
0.0
 40
  0.0500
 1
54
 0
LINE
 8
PARTS
 10
 10.8000
 20
  3.5000
 30
0.0
 11
 10.5000
 21
  3.5000
 31
0.0
 0
TEXT
 8
PARTS
 10
 10.2500
 20
  3.4750
 30
0.0
 40
  0.0500
 1
SIZ0
 0
TEXT
 8
PARTS
 10
 10.5600
 20
  3.5300
 30
0.0
 40
  0.0500
 1
55
 0
LINE
 8
PARTS
 10
 10.8000
 20
  3.4000
 30
0.0
 11
 10.5000
 21
  3.4000
 31
0.0
 0
TEXT
 8
PARTS
 10
 10.2500
 20
  3.3750
 30
0.0
 40
  0.0500
 1
SIZ1
 0
TEXT
 8
PARTS
 10
 10.5600
 20
  3.4300
 30
0.0
 40
  0.0500
 1
56
 0
LINE
 8
PARTS
 10
 10.8000
 20
  3.3000
 30
0.0
 11
 10.5000
 21
  3.3000
 31
0.0
 0
TEXT
 8
PARTS
 10
 10.1300
 20
  3.2750
 30
0.0
 40
  0.0500
 1
11RESET
 0
TEXT
 8
PARTS
 10
 10.5600
 20
  3.3300
 30
0.0
 40
  0.0500
 1
57
 0
LINE
 8
PARTS
 10
 10.8000
 20
  3.2000
 30
0.0
 11
 10.5000
 21
  3.2000
 31
0.0
 0
TEXT
 8
PARTS
 10
 10.1700
 20
  3.1750
 30
0.0
 40
  0.0500
 1
CLKOUT
 0
TEXT
 8
PARTS
 10
 10.5600
 20
  3.2300
 30
0.0
 40
  0.0500
 1
58
 0
LINE
 8
PARTS
 10
 10.8000
 20
  3.1000
 30
0.0
 11
 10.5000
 21
  3.1000
 31
0.0
 0
TEXT
 8
PARTS
 10
 10.2100
 20
  3.0750
 30
0.0
 40
  0.0500
 1
EXTAL
 0
TEXT
 8
PARTS
 10
 10.5600
 20
  3.1300
 30
0.0
 40
  0.0500
 1
59
 0
LINE
 8
PARTS
 10
 10.8000
 20
  3.0000
 30
0.0
 11
 10.5000
 21
  3.0000
 31
0.0
 0
TEXT
 8
PARTS
 10
 10.2500
 20
  2.9750
 30
0.0
 40
  0.0500
 1
HALT
 0
TEXT
 8
PARTS
 10
 10.5600
 20
  3.0300
 30
0.0
 40
  0.0500
 1
60
 0
LINE
 8
PARTS
 10
 10.8000
 20
  2.9000
 30
0.0
 11
 10.5000
 21
  2.9000
 31
0.0
 0
TEXT
 8
PARTS
 10
 10.3300
 20
  2.8750
 30
0.0
 40
  0.0500
 1
+5
 0
TEXT
 8
PARTS
 10
 10.5600
 20
  2.9300
 30
0.0
 40
  0.0500
 1
61
 0
LINE
 8
PARTS
 10
 10.8000
 20
  2.8000
 30
0.0
 11
 10.5000
 21
  2.8000
 31
0.0
 0
TEXT
 8
PARTS
 10
 10.3300
 20
  2.7750
 30
0.0
 40
  0.0500
 1
+5
 0
TEXT
 8
PARTS
 10
 10.5600
 20
  2.8300
 30
0.0
 40
  0.0500
 1
62
 0
LINE
 8
PARTS
 10
 10.8000
 20
  2.7000
 30
0.0
 11
 10.5000
 21
  2.7000
 31
0.0
 0
TEXT
 8
PARTS
 10
 10.2900
 20
  2.6750
 30
0.0
 40
  0.0500
 1
GND
 0
TEXT
 8
PARTS
 10
 10.5600
 20
  2.7300
 30
0.0
 40
  0.0500
 1
63
 0
LINE
 8
PARTS
 10
 10.8000
 20
  2.6000
 30
0.0
 11
 10.5000
 21
  2.6000
 31
0.0
 0
TEXT
 8
PARTS
 10
 10.2900
 20
  2.5750
 30
0.0
 40
  0.0500
 1
GND
 0
TEXT
 8
PARTS
 10
 10.5600
 20
  2.6300
 30
0.0
 40
  0.0500
 1
64
 0
POLYLINE
 8
PARTS
 66
1
 70
1
 10
0.0
 20
0.0
 30
0.0
 0
VERTEX
 8
PARTS
 10
  9.1000
 20
  9.0000
 30
0.0
 0
VERTEX
 8
PARTS
 10
 10.5000
 20
  9.0000
 30
0.0
 0
VERTEX
 8
PARTS
 10
 10.5000
 20
  2.2000
 30
0.0
 0
VERTEX
 8
PARTS
 10
  9.1000
 20
  2.2000
 30
0.0
 0
SEQEND
 8
PARTS
 0
TEXT
 8
PARTTEXT
 10
 12.2500
 20
  8.2086
 30
0.0
 40
  0.0514
 1
U2B
 0
TEXT
 8
PARTTEXT
 10
 12.2500
 20
  7.4086
 30
0.0
 40
  0.0514
 1
74AHCT244
 0
CIRCLE
 8
PARTS
 10
 12.1700
 20
  8.1000
 30
0.0
 40
  0.0300
 0
LINE
 8
PARTS
 10
 11.9000
 20
  8.1000
 30
0.0
 11
 12.1400
 21
  8.1000
 31
0.0
 0
TEXT
 8
PARTS
 10
 12.0600
 20
  8.1300
 30
0.0
 40
  0.0500
 1
19
 0
LINE
 8
PARTS
 10
 11.9000
 20
  7.9000
 30
0.0
 11
 12.2000
 21
  7.9000
 31
0.0
 0
TEXT
 8
PARTS
 10
 12.0600
 20
  7.9300
 30
0.0
 40
  0.0500
 1
11
 0
LINE
 8
PARTS
 10
 11.9000
 20
  7.8000
 30
0.0
 11
 12.2000
 21
  7.8000
 31
0.0
 0
TEXT
 8
PARTS
 10
 12.0600
 20
  7.8300
 30
0.0
 40
  0.0500
 1
13
 0
LINE
 8
PARTS
 10
 11.9000
 20
  7.7000
 30
0.0
 11
 12.2000
 21
  7.7000
 31
0.0
 0
TEXT
 8
PARTS
 10
 12.0600
 20
  7.7300
 30
0.0
 40
  0.0500
 1
15
 0
LINE
 8
PARTS
 10
 11.9000
 20
  7.6000
 30
0.0
 11
 12.2000
 21
  7.6000
 31
0.0
 0
TEXT
 8
PARTS
 10
 12.0600
 20
  7.6300
 30
0.0
 40
  0.0500
 1
17
 0
LINE
 8
PARTS
 10
 13.0000
 20
  7.6000
 30
0.0
 11
 12.7000
 21
  7.6000
 31
0.0
 0
TEXT
 8
PARTS
 10
 12.7600
 20
  7.6300
 30
0.0
 40
  0.0500
 1
3
 0
LINE
 8
PARTS
 10
 13.0000
 20
  7.7000
 30
0.0
 11
 12.7000
 21
  7.7000
 31
0.0
 0
TEXT
 8
PARTS
 10
 12.7600
 20
  7.7300
 30
0.0
 40
  0.0500
 1
5
 0
LINE
 8
PARTS
 10
 13.0000
 20
  7.8000
 30
0.0
 11
 12.7000
 21
  7.8000
 31
0.0
 0
TEXT
 8
PARTS
 10
 12.7600
 20
  7.8300
 30
0.0
 40
  0.0500
 1
7
 0
LINE
 8
PARTS
 10
 13.0000
 20
  7.9000
 30
0.0
 11
 12.7000
 21
  7.9000
 31
0.0
 0
TEXT
 8
PARTS
 10
 12.7600
 20
  7.9300
 30
0.0
 40
  0.0500
 1
9
 0
POLYLINE
 8
PARTS
 66
1
 10
0.0
 20
0.0
 30
0.0
 0
VERTEX
 8
PARTS
 10
 12.6000
 20
  8.2000
 30
0.0
 0
VERTEX
 8
PARTS
 10
 12.2000
 20
  8.2000
 30
0.0
 0
SEQEND
 8
PARTS
 0
POLYLINE
 8
PARTS
 66
1
 10
0.0
 20
0.0
 30
0.0
 0
VERTEX
 8
PARTS
 10
 12.2000
 20
  8.2000
 30
0.0
 0
VERTEX
 8
PARTS
 10
 12.2000
 20
  8.1000
 30
0.0
 0
SEQEND
 8
PARTS
 0
POLYLINE
 8
PARTS
 66
1
 10
0.0
 20
0.0
 30
0.0
 0
VERTEX
 8
PARTS
 10
 12.2000
 20
  8.1000
 30
0.0
 0
VERTEX
 8
PARTS
 10
 12.2000
 20
  8.0500
 30
0.0
 0
SEQEND
 8
PARTS
 0
POLYLINE
 8
PARTS
 66
1
 10
0.0
 20
0.0
 30
0.0
 0
VERTEX
 8
PARTS
 10
 12.2000
 20
  8.0500
 30
0.0
 0
VERTEX
 8
PARTS
 10
 12.3000
 20
  8.0500
 30
0.0
 0
SEQEND
 8
PARTS
 0
POLYLINE
 8
PARTS
 66
1
 10
0.0
 20
0.0
 30
0.0
 0
VERTEX
 8
PARTS
 10
 12.3000
 20
  8.0500
 30
0.0
 0
VERTEX
 8
PARTS
 10
 12.3000
 20
  7.9500
 30
0.0
 0
SEQEND
 8
PARTS
 0
POLYLINE
 8
PARTS
 66
1
 10
0.0
 20
0.0
 30
0.0
 0
VERTEX
 8
PARTS
 10
 12.3000
 20
  7.9500
 30
0.0
 0
VERTEX
 8
PARTS
 10
 12.2000
 20
  7.9500
 30
0.0
 0
SEQEND
 8
PARTS
 0
POLYLINE
 8
PARTS
 66
1
 10
0.0
 20
0.0
 30
0.0
 0
VERTEX
 8
PARTS
 10
 12.2000
 20
  7.9500
 30
0.0
 0
VERTEX
 8
PARTS
 10
 12.2000
 20
  7.5000
 30
0.0
 0
SEQEND
 8
PARTS
 0
POLYLINE
 8
PARTS
 66
1
 10
0.0
 20
0.0
 30
0.0
 0
VERTEX
 8
PARTS
 10
 12.2000
 20
  7.5000
 30
0.0
 0
VERTEX
 8
PARTS
 10
 12.6000
 20
  7.5000
 30
0.0
 0
SEQEND
 8
PARTS
 0
POLYLINE
 8
PARTS
 66
1
 10
0.0
 20
0.0
 30
0.0
 0
VERTEX
 8
PARTS
 10
 12.6000
 20
  7.9500
 30
0.0
 0
VERTEX
 8
PARTS
 10
 12.5000
 20
  7.9500
 30
0.0
 0
SEQEND
 8
PARTS
 0
POLYLINE
 8
PARTS
 66
1
 10
0.0
 20
0.0
 30
0.0
 0
VERTEX
 8
PARTS
 10
 12.3000
 20
  7.9500
 30
0.0
 0
VERTEX
 8
PARTS
 10
 12.5000
 20
  7.9500
 30
0.0
 0
SEQEND
 8
PARTS
 0
POLYLINE
 8
PARTS
 66
1
 10
0.0
 20
0.0
 30
0.0
 0
VERTEX
 8
PARTS
 10
 12.2000
 20
  7.8500
 30
0.0
 0
VERTEX
 8
PARTS
 10
 12.5900
 20
  7.8500
 30
0.0
 0
SEQEND
 8
PARTS
 0
POLYLINE
 8
PARTS
 66
1
 10
0.0
 20
0.0
 30
0.0
 0
VERTEX
 8
PARTS
 10
 12.2000
 20
  7.7500
 30
0.0
 0
VERTEX
 8
PARTS
 10
 12.6000
 20
  7.7500
 30
0.0
 0
SEQEND
 8
PARTS
 0
POLYLINE
 8
PARTS
 66
1
 10
0.0
 20
0.0
 30
0.0
 0
VERTEX
 8
PARTS
 10
 12.2000
 20
  7.6500
 30
0.0
 0
VERTEX
 8
PARTS
 10
 12.6000
 20
  7.6500
 30
0.0
 0
SEQEND
 8
PARTS
 0
POLYLINE
 8
PARTS
 66
1
 10
0.0
 20
0.0
 30
0.0
 0
VERTEX
 8
PARTS
 10
 12.2000
 20
  7.5000
 30
0.0
 0
VERTEX
 8
PARTS
 10
 12.7000
 20
  7.5000
 30
0.0
 0
SEQEND
 8
PARTS
 0
POLYLINE
 8
PARTS
 66
1
 10
0.0
 20
0.0
 30
0.0
 0
VERTEX
 8
PARTS
 10
 12.7000
 20
  7.5000
 30
0.0
 0
VERTEX
 8
PARTS
 10
 12.7000
 20
  7.9500
 30
0.0
 0
SEQEND
 8
PARTS
 0
POLYLINE
 8
PARTS
 66
1
 10
0.0
 20
0.0
 30
0.0
 0
VERTEX
 8
PARTS
 10
 12.7000
 20
  7.9500
 30
0.0
 0
VERTEX
 8
PARTS
 10
 12.6000
 20
  7.9500
 30
0.0
 0
SEQEND
 8
PARTS
 0
POLYLINE
 8
PARTS
 66
1
 10
0.0
 20
0.0
 30
0.0
 0
VERTEX
 8
PARTS
 10
 12.6000
 20
  7.9500
 30
0.0
 0
VERTEX
 8
PARTS
 10
 12.6000
 20
  8.0500
 30
0.0
 0
SEQEND
 8
PARTS
 0
POLYLINE
 8
PARTS
 66
1
 10
0.0
 20
0.0
 30
0.0
 0
VERTEX
 8
PARTS
 10
 12.6000
 20
  8.0500
 30
0.0
 0
VERTEX
 8
PARTS
 10
 12.7000
 20
  8.0500
 30
0.0
 0
SEQEND
 8
PARTS
 0
POLYLINE
 8
PARTS
 66
1
 10
0.0
 20
0.0
 30
0.0
 0
VERTEX
 8
PARTS
 10
 12.7000
 20
  8.0500
 30
0.0
 0
VERTEX
 8
PARTS
 10
 12.7000
 20
  8.2000
 30
0.0
 0
SEQEND
 8
PARTS
 0
POLYLINE
 8
PARTS
 66
1
 10
0.0
 20
0.0
 30
0.0
 0
VERTEX
 8
PARTS
 10
 12.7000
 20
  8.2000
 30
0.0
 0
VERTEX
 8
PARTS
 10
 12.2000
 20
  8.2000
 30
0.0
 0
SEQEND
 8
PARTS
 0
POLYLINE
 8
PARTS
 66
1
 10
0.0
 20
0.0
 30
0.0
 0
VERTEX
 8
PARTS
 10
 12.5700
 20
  7.8500
 30
0.0
 0
VERTEX
 8
PARTS
 10
 12.7000
 20
  7.8500
 30
0.0
 0
SEQEND
 8
PARTS
 0
POLYLINE
 8
PARTS
 66
1
 10
0.0
 20
0.0
 30
0.0
 0
VERTEX
 8
PARTS
 10
 12.5700
 20
  7.7500
 30
0.0
 0
VERTEX
 8
PARTS
 10
 12.7000
 20
  7.7500
 30
0.0
 0
SEQEND
 8
PARTS
 0
POLYLINE
 8
PARTS
 66
1
 10
0.0
 20
0.0
 30
0.0
 0
VERTEX
 8
PARTS
 10
 12.5500
 20
  7.6500
 30
0.0
 0
VERTEX
 8
PARTS
 10
 12.7000
 20
  7.6500
 30
0.0
 0
SEQEND
 8
PARTS
 0
TEXT
 8
PARTTEXT
 10
 12.2200
 20
  8.0672
 30
0.0
 40
  0.0628
 1
EN
 0
POLYLINE
 8
PARTS
 66
1
 10
0.0
 20
0.0
 30
0.0
 0
VERTEX
 8
PARTS
 10
 12.6000
 20
  7.9400
 30
0.0
 0
VERTEX
 8
PARTS
 10
 12.6800
 20
  7.9400
 30
0.0
 0
VERTEX
 8
PARTS
 10
 12.6400
 20
  7.8600
 30
0.0
 0
VERTEX
 8
PARTS
 10
 12.6000
 20
  7.9400
 30
0.0
 0
SEQEND
 8
PARTS
 0
POLYLINE
 8
PARTS
 66
1
 10
0.0
 20
0.0
 30
0.0
 0
VERTEX
 8
PARTS
 10
 12.4200
 20
  7.8600
 30
0.0
 0
VERTEX
 8
PARTS
 10
 12.4200
 20
  7.9400
 30
0.0
 0
VERTEX
 8
PARTS
 10
 12.5000
 20
  7.9000
 30
0.0
 0
VERTEX
 8
PARTS
 10
 12.4200
 20
  7.8600
 30
0.0
 0
SEQEND
 8
PARTS
 0
TEXT
 8
PARTTEXT
 10
 12.2500
 20
  9.4086
 30
0.0
 40
  0.0514
 1
U2A
 0
TEXT
 8
PARTTEXT
 10
 12.2500
 20
  8.6086
 30
0.0
 40
  0.0514
 1
74AHCT244
 0
CIRCLE
 8
PARTS
 10
 12.1700
 20
  9.3000
 30
0.0
 40
  0.0300
 0
LINE
 8
PARTS
 10
 11.9000
 20
  9.3000
 30
0.0
 11
 12.1400
 21
  9.3000
 31
0.0
 0
TEXT
 8
PARTS
 10
 12.1000
 20
  9.3300
 30
0.0
 40
  0.0500
 1
1
 0
LINE
 8
PARTS
 10
 11.9000
 20
  9.1000
 30
0.0
 11
 12.2000
 21
  9.1000
 31
0.0
 0
TEXT
 8
PARTS
 10
 12.1000
 20
  9.1300
 30
0.0
 40
  0.0500
 1
2
 0
LINE
 8
PARTS
 10
 11.9000
 20
  9.0000
 30
0.0
 11
 12.2000
 21
  9.0000
 31
0.0
 0
TEXT
 8
PARTS
 10
 12.1000
 20
  9.0300
 30
0.0
 40
  0.0500
 1
4
 0
LINE
 8
PARTS
 10
 11.9000
 20
  8.9000
 30
0.0
 11
 12.2000
 21
  8.9000
 31
0.0
 0
TEXT
 8
PARTS
 10
 12.1000
 20
  8.9300
 30
0.0
 40
  0.0500
 1
6
 0
LINE
 8
PARTS
 10
 11.9000
 20
  8.8000
 30
0.0
 11
 12.2000
 21
  8.8000
 31
0.0
 0
TEXT
 8
PARTS
 10
 12.1000
 20
  8.8300
 30
0.0
 40
  0.0500
 1
8
 0
LINE
 8
PARTS
 10
 13.0000
 20
  8.8000
 30
0.0
 11
 12.7000
 21
  8.8000
 31
0.0
 0
TEXT
 8
PARTS
 10
 12.7600
 20
  8.8300
 30
0.0
 40
  0.0500
 1
12
 0
LINE
 8
PARTS
 10
 13.0000
 20
  8.9000
 30
0.0
 11
 12.7000
 21
  8.9000
 31
0.0
 0
TEXT
 8
PARTS
 10
 12.7600
 20
  8.9300
 30
0.0
 40
  0.0500
 1
14
 0
LINE
 8
PARTS
 10
 13.0000
 20
  9.0000
 30
0.0
 11
 12.7000
 21
  9.0000
 31
0.0
 0
TEXT
 8
PARTS
 10
 12.7600
 20
  9.0300
 30
0.0
 40
  0.0500
 1
16
 0
LINE
 8
PARTS
 10
 13.0000
 20
  9.1000
 30
0.0
 11
 12.7000
 21
  9.1000
 31
0.0
 0
TEXT
 8
PARTS
 10
 12.7600
 20
  9.1300
 30
0.0
 40
  0.0500
 1
18
 0
POLYLINE
 8
PARTS
 66
1
 10
0.0
 20
0.0
 30
0.0
 0
VERTEX
 8
PARTS
 10
 12.6000
 20
  9.4000
 30
0.0
 0
VERTEX
 8
PARTS
 10
 12.2000
 20
  9.4000
 30
0.0
 0
SEQEND
 8
PARTS
 0
POLYLINE
 8
PARTS
 66
1
 10
0.0
 20
0.0
 30
0.0
 0
VERTEX
 8
PARTS
 10
 12.2000
 20
  9.4000
 30
0.0
 0
VERTEX
 8
PARTS
 10
 12.2000
 20
  9.3000
 30
0.0
 0
SEQEND
 8
PARTS
 0
POLYLINE
 8
PARTS
 66
1
 10
0.0
 20
0.0
 30
0.0
 0
VERTEX
 8
PARTS
 10
 12.2000
 20
  9.3000
 30
0.0
 0
VERTEX
 8
PARTS
 10
 12.2000
 20
  9.2500
 30
0.0
 0
SEQEND
 8
PARTS
 0
POLYLINE
 8
PARTS
 66
1
 10
0.0
 20
0.0
 30
0.0
 0
VERTEX
 8
PARTS
 10
 12.2000
 20
  9.2500
 30
0.0
 0
VERTEX
 8
PARTS
 10
 12.3000
 20
  9.2500
 30
0.0
 0
SEQEND
 8
PARTS
 0
POLYLINE
 8
PARTS
 66
1
 10
0.0
 20
0.0
 30
0.0
 0
VERTEX
 8
PARTS
 10
 12.3000
 20
  9.2500
 30
0.0
 0
VERTEX
 8
PARTS
 10
 12.3000
 20
  9.1500
 30
0.0
 0
SEQEND
 8
PARTS
 0
POLYLINE
 8
PARTS
 66
1
 10
0.0
 20
0.0
 30
0.0
 0
VERTEX
 8
PARTS
 10
 12.3000
 20
  9.1500
 30
0.0
 0
VERTEX
 8
PARTS
 10
 12.2000
 20
  9.1500
 30
0.0
 0
SEQEND
 8
PARTS
 0
POLYLINE
 8
PARTS
 66
1
 10
0.0
 20
0.0
 30
0.0
 0
VERTEX
 8
PARTS
 10
 12.2000
 20
  9.1500
 30
0.0
 0
VERTEX
 8
PARTS
 10
 12.2000
 20
  8.7000
 30
0.0
 0
SEQEND
 8
PARTS
 0
POLYLINE
 8
PARTS
 66
1
 10
0.0
 20
0.0
 30
0.0
 0
VERTEX
 8
PARTS
 10
 12.2000
 20
  8.7000
 30
0.0
 0
VERTEX
 8
PARTS
 10
 12.6000
 20
  8.7000
 30
0.0
 0
SEQEND
 8
PARTS
 0
POLYLINE
 8
PARTS
 66
1
 10
0.0
 20
0.0
 30
0.0
 0
VERTEX
 8
PARTS
 10
 12.6000
 20
  9.1500
 30
0.0
 0
VERTEX
 8
PARTS
 10
 12.5000
 20
  9.1500
 30
0.0
 0
SEQEND
 8
PARTS
 0
POLYLINE
 8
PARTS
 66
1
 10
0.0
 20
0.0
 30
0.0
 0
VERTEX
 8
PARTS
 10
 12.3000
 20
  9.1500
 30
0.0
 0
VERTEX
 8
PARTS
 10
 12.5000
 20
  9.1500
 30
0.0
 0
SEQEND
 8
PARTS
 0
POLYLINE
 8
PARTS
 66
1
 10
0.0
 20
0.0
 30
0.0
 0
VERTEX
 8
PARTS
 10
 12.2000
 20
  9.0500
 30
0.0
 0
VERTEX
 8
PARTS
 10
 12.5900
 20
  9.0500
 30
0.0
 0
SEQEND
 8
PARTS
 0
POLYLINE
 8
PARTS
 66
1
 10
0.0
 20
0.0
 30
0.0
 0
VERTEX
 8
PARTS
 10
 12.2000
 20
  8.9500
 30
0.0
 0
VERTEX
 8
PARTS
 10
 12.6000
 20
  8.9500
 30
0.0
 0
SEQEND
 8
PARTS
 0
POLYLINE
 8
PARTS
 66
1
 10
0.0
 20
0.0
 30
0.0
 0
VERTEX
 8
PARTS
 10
 12.2000
 20
  8.8500
 30
0.0
 0
VERTEX
 8
PARTS
 10
 12.6000
 20
  8.8500
 30
0.0
 0
SEQEND
 8
PARTS
 0
POLYLINE
 8
PARTS
 66
1
 10
0.0
 20
0.0
 30
0.0
 0
VERTEX
 8
PARTS
 10
 12.2000
 20
  8.7000
 30
0.0
 0
VERTEX
 8
PARTS
 10
 12.7000
 20
  8.7000
 30
0.0
 0
SEQEND
 8
PARTS
 0
POLYLINE
 8
PARTS
 66
1
 10
0.0
 20
0.0
 30
0.0
 0
VERTEX
 8
PARTS
 10
 12.7000
 20
  8.7000
 30
0.0
 0
VERTEX
 8
PARTS
 10
 12.7000
 20
  9.1500
 30
0.0
 0
SEQEND
 8
PARTS
 0
POLYLINE
 8
PARTS
 66
1
 10
0.0
 20
0.0
 30
0.0
 0
VERTEX
 8
PARTS
 10
 12.7000
 20
  9.1500
 30
0.0
 0
VERTEX
 8
PARTS
 10
 12.6000
 20
  9.1500
 30
0.0
 0
SEQEND
 8
PARTS
 0
POLYLINE
 8
PARTS
 66
1
 10
0.0
 20
0.0
 30
0.0
 0
VERTEX
 8
PARTS
 10
 12.6000
 20
  9.1500
 30
0.0
 0
VERTEX
 8
PARTS
 10
 12.6000
 20
  9.2500
 30
0.0
 0
SEQEND
 8
PARTS
 0
POLYLINE
 8
PARTS
 66
1
 10
0.0
 20
0.0
 30
0.0
 0
VERTEX
 8
PARTS
 10
 12.6000
 20
  9.2500
 30
0.0
 0
VERTEX
 8
PARTS
 10
 12.7000
 20
  9.2500
 30
0.0
 0
SEQEND
 8
PARTS
 0
POLYLINE
 8
PARTS
 66
1
 10
0.0
 20
0.0
 30
0.0
 0
VERTEX
 8
PARTS
 10
 12.7000
 20
  9.2500
 30
0.0
 0
VERTEX
 8
PARTS
 10
 12.7000
 20
  9.4000
 30
0.0
 0
SEQEND
 8
PARTS
 0
POLYLINE
 8
PARTS
 66
1
 10
0.0
 20
0.0
 30
0.0
 0
VERTEX
 8
PARTS
 10
 12.7000
 20
  9.4000
 30
0.0
 0
VERTEX
 8
PARTS
 10
 12.2000
 20
  9.4000
 30
0.0
 0
SEQEND
 8
PARTS
 0
POLYLINE
 8
PARTS
 66
1
 10
0.0
 20
0.0
 30
0.0
 0
VERTEX
 8
PARTS
 10
 12.5700
 20
  9.0500
 30
0.0
 0
VERTEX
 8
PARTS
 10
 12.7000
 20
  9.0500
 30
0.0
 0
SEQEND
 8
PARTS
 0
POLYLINE
 8
PARTS
 66
1
 10
0.0
 20
0.0
 30
0.0
 0
VERTEX
 8
PARTS
 10
 12.5700
 20
  8.9500
 30
0.0
 0
VERTEX
 8
PARTS
 10
 12.7000
 20
  8.9500
 30
0.0
 0
SEQEND
 8
PARTS
 0
POLYLINE
 8
PARTS
 66
1
 10
0.0
 20
0.0
 30
0.0
 0
VERTEX
 8
PARTS
 10
 12.5500
 20
  8.8500
 30
0.0
 0
VERTEX
 8
PARTS
 10
 12.7000
 20
  8.8500
 30
0.0
 0
SEQEND
 8
PARTS
 0
TEXT
 8
PARTTEXT
 10
 12.2200
 20
  9.2672
 30
0.0
 40
  0.0628
 1
EN
 0
POLYLINE
 8
PARTS
 66
1
 10
0.0
 20
0.0
 30
0.0
 0
VERTEX
 8
PARTS
 10
 12.6000
 20
  9.1400
 30
0.0
 0
VERTEX
 8
PARTS
 10
 12.6800
 20
  9.1400
 30
0.0
 0
VERTEX
 8
PARTS
 10
 12.6400
 20
  9.0600
 30
0.0
 0
VERTEX
 8
PARTS
 10
 12.6000
 20
  9.1400
 30
0.0
 0
SEQEND
 8
PARTS
 0
POLYLINE
 8
PARTS
 66
1
 10
0.0
 20
0.0
 30
0.0
 0
VERTEX
 8
PARTS
 10
 12.4200
 20
  9.0600
 30
0.0
 0
VERTEX
 8
PARTS
 10
 12.4200
 20
  9.1400
 30
0.0
 0
VERTEX
 8
PARTS
 10
 12.5000
 20
  9.1000
 30
0.0
 0
VERTEX
 8
PARTS
 10
 12.4200
 20
  9.0600
 30
0.0
 0
SEQEND
 8
PARTS
 0
TEXT
 8
PARTTEXT
 10
 12.4000
 20
  5.1786
 30
0.0
 40
  0.0514
 1
U10
 0
TEXT
 8
PARTTEXT
 10
 12.4000
 20
  5.0486
 30
0.0
 40
  0.0514
 1
LM340S
 0
LINE
 8
PARTS
 10
 12.1000
 20
  4.9000
 30
0.0
 11
 12.4000
 21
  4.9000
 31
0.0
 0
TEXT
 8
PARTS
 10
 12.4900
 20
  4.8750
 30
0.0
 40
  0.0500
 1
VOUT
 0
TEXT
 8
PARTS
 10
 12.3000
 20
  4.9300
 30
0.0
 40
  0.0500
 1
3
 0
LINE
 8
PARTS
 10
 12.9000
 20
  4.2000
 30
0.0
 11
 12.9000
 21
  4.5000
 31
0.0
 0
TEXT
 8
PARTS
 10
 12.9250
 20
  4.5900
 30
0.0
 40
  0.0500
 50
 90.0000
 1
GND
 0
TEXT
 8
PARTS
 10
 12.8700
 20
  4.3800
 30
0.0
 40
  0.0500
 50
 90.0000
 1
4
 0
LINE
 8
PARTS
 10
 13.5000
 20
  4.9000
 30
0.0
 11
 13.2000
 21
  4.9000
 31
0.0
 0
TEXT
 8
PARTS
 10
 12.9900
 20
  4.8750
 30
0.0
 40
  0.0500
 1
VIN
 0
TEXT
 8
PARTS
 10
 13.2600
 20
  4.9300
 30
0.0
 40
  0.0500
 1
1
 0
LINE
 8
PARTS
 10
 12.8000
 20
  4.2000
 30
0.0
 11
 12.8000
 21
  4.5000
 31
0.0
 0
TEXT
 8
PARTS
 10
 12.8250
 20
  4.5900
 30
0.0
 40
  0.0500
 50
 90.0000
 1
GND
 0
TEXT
 8
PARTS
 10
 12.7700
 20
  4.3800
 30
0.0
 40
  0.0500
 50
 90.0000
 1
2
 0
POLYLINE
 8
PARTS
 66
1
 70
1
 10
0.0
 20
0.0
 30
0.0
 0
VERTEX
 8
PARTS
 10
 13.2000
 20
  5.0000
 30
0.0
 0
VERTEX
 8
PARTS
 10
 12.4000
 20
  5.0000
 30
0.0
 0
VERTEX
 8
PARTS
 10
 12.4000
 20
  4.5000
 30
0.0
 0
VERTEX
 8
PARTS
 10
 13.2000
 20
  4.5000
 30
0.0
 0
SEQEND
 8
PARTS
 0
TEXT
 8
PARTTEXT
 10
  1.2000
 20
  7.1186
 30
0.0
 40
  0.0514
 1
U6
 0
TEXT
 8
PARTTEXT
 10
  1.4000
 20
  7.1186
 30
0.0
 40
  0.0514
 1
4N35
 0
LINE
 8
PARTS
 10
  1.0000
 20
  7.0000
 30
0.0
 11
  1.1000
 21
  7.0000
 31
0.0
 0
TEXT
 8
PARTS
 10
  1.0000
 20
  7.0300
 30
0.0
 40
  0.0500
 1
1
 0
LINE
 8
PARTS
 10
  1.8000
 20
  7.0000
 30
0.0
 11
  1.7000
 21
  7.0000
 31
0.0
 0
TEXT
 8
PARTS
 10
  1.7600
 20
  7.0300
 30
0.0
 40
  0.0500
 1
6
 0
LINE
 8
PARTS
 10
  1.0000
 20
  6.5000
 30
0.0
 11
  1.1000
 21
  6.5000
 31
0.0
 0
TEXT
 8
PARTS
 10
  1.0000
 20
  6.5300
 30
0.0
 40
  0.0500
 1
2
 0
LINE
 8
PARTS
 10
  1.8000
 20
  6.8000
 30
0.0
 11
  1.7000
 21
  6.8000
 31
0.0
 0
TEXT
 8
PARTS
 10
  1.7600
 20
  6.8300
 30
0.0
 40
  0.0500
 1
5
 0
LINE
 8
PARTS
 10
  1.8000
 20
  6.6000
 30
0.0
 11
  1.7000
 21
  6.6000
 31
0.0
 0
TEXT
 8
PARTS
 10
  1.7600
 20
  6.6300
 30
0.0
 40
  0.0500
 1
4
 0
POLYLINE
 8
PARTS
 66
1
 70
1
 10
0.0
 20
0.0
 30
0.0
 0
VERTEX
 8
PARTS
 10
  1.6700
 20
  6.6300
 30
0.0
 0
VERTEX
 8
PARTS
 10
  1.7000
 20
  6.6600
 30
0.0
 0
VERTEX
 8
PARTS
 10
  1.7000
 20
  6.6000
 30
0.0
 0
VERTEX
 8
PARTS
 10
  1.6400
 20
  6.6000
 30
0.0
 0
VERTEX
 8
PARTS
 10
  1.6700
 20
  6.6300
 30
0.0
 0
SEQEND
 8
PARTS
 0
POLYLINE
 8
PARTS
 66
1
 70
1
 10
0.0
 20
0.0
 30
0.0
 0
VERTEX
 8
PARTS
 10
  1.1500
 20
  6.8000
 30
0.0
 0
VERTEX
 8
PARTS
 10
  1.2500
 20
  6.8000
 30
0.0
 0
VERTEX
 8
PARTS
 10
  1.2000
 20
  6.7000
 30
0.0
 0
VERTEX
 8
PARTS
 10
  1.1500
 20
  6.8000
 30
0.0
 0
SEQEND
 8
PARTS
 0
POLYLINE
 8
PARTS
 66
1
 10
0.0
 20
0.0
 30
0.0
 0
VERTEX
 8
PARTS
 10
  1.1000
 20
  7.0000
 30
0.0
 0
VERTEX
 8
PARTS
 10
  1.2000
 20
  7.0000
 30
0.0
 0
SEQEND
 8
PARTS
 0
POLYLINE
 8
PARTS
 66
1
 10
0.0
 20
0.0
 30
0.0
 0
VERTEX
 8
PARTS
 10
  1.2000
 20
  7.0000
 30
0.0
 0
VERTEX
 8
PARTS
 10
  1.2000
 20
  6.8000
 30
0.0
 0
SEQEND
 8
PARTS
 0
POLYLINE
 8
PARTS
 66
1
 10
0.0
 20
0.0
 30
0.0
 0
VERTEX
 8
PARTS
 10
  1.1500
 20
  6.7000
 30
0.0
 0
VERTEX
 8
PARTS
 10
  1.2500
 20
  6.7000
 30
0.0
 0
SEQEND
 8
PARTS
 0
POLYLINE
 8
PARTS
 66
1
 10
0.0
 20
0.0
 30
0.0
 0
VERTEX
 8
PARTS
 10
  1.2000
 20
  6.7000
 30
0.0
 0
VERTEX
 8
PARTS
 10
  1.2000
 20
  6.5000
 30
0.0
 0
SEQEND
 8
PARTS
 0
POLYLINE
 8
PARTS
 66
1
 10
0.0
 20
0.0
 30
0.0
 0
VERTEX
 8
PARTS
 10
  1.2000
 20
  6.5000
 30
0.0
 0
VERTEX
 8
PARTS
 10
  1.1000
 20
  6.5000
 30
0.0
 0
SEQEND
 8
PARTS
 0
POLYLINE
 8
PARTS
 66
1
 10
0.0
 20
0.0
 30
0.0
 0
VERTEX
 8
PARTS
 10
  1.3900
 20
  6.8000
 30
0.0
 0
VERTEX
 8
PARTS
 10
  1.4300
 20
  6.7600
 30
0.0
 0
SEQEND
 8
PARTS
 0
POLYLINE
 8
PARTS
 66
1
 10
0.0
 20
0.0
 30
0.0
 0
VERTEX
 8
PARTS
 10
  1.4300
 20
  6.7600
 30
0.0
 0
VERTEX
 8
PARTS
 10
  1.4300
 20
  6.7900
 30
0.0
 0
SEQEND
 8
PARTS
 0
POLYLINE
 8
PARTS
 66
1
 10
0.0
 20
0.0
 30
0.0
 0
VERTEX
 8
PARTS
 10
  1.4300
 20
  6.7900
 30
0.0
 0
VERTEX
 8
PARTS
 10
  1.4700
 20
  6.7500
 30
0.0
 0
SEQEND
 8
PARTS
 0
POLYLINE
 8
PARTS
 66
1
 10
0.0
 20
0.0
 30
0.0
 0
VERTEX
 8
PARTS
 10
  1.4700
 20
  6.7500
 30
0.0
 0
VERTEX
 8
PARTS
 10
  1.4900
 20
  6.7700
 30
0.0
 0
SEQEND
 8
PARTS
 0
POLYLINE
 8
PARTS
 66
1
 10
0.0
 20
0.0
 30
0.0
 0
VERTEX
 8
PARTS
 10
  1.4900
 20
  6.7700
 30
0.0
 0
VERTEX
 8
PARTS
 10
  1.4900
 20
  6.7300
 30
0.0
 0
SEQEND
 8
PARTS
 0
POLYLINE
 8
PARTS
 66
1
 10
0.0
 20
0.0
 30
0.0
 0
VERTEX
 8
PARTS
 10
  1.4900
 20
  6.7300
 30
0.0
 0
VERTEX
 8
PARTS
 10
  1.4500
 20
  6.7300
 30
0.0
 0
SEQEND
 8
PARTS
 0
POLYLINE
 8
PARTS
 66
1
 10
0.0
 20
0.0
 30
0.0
 0
VERTEX
 8
PARTS
 10
  1.4500
 20
  6.7300
 30
0.0
 0
VERTEX
 8
PARTS
 10
  1.4700
 20
  6.7500
 30
0.0
 0
SEQEND
 8
PARTS
 0
POLYLINE
 8
PARTS
 66
1
 10
0.0
 20
0.0
 30
0.0
 0
VERTEX
 8
PARTS
 10
  1.3900
 20
  6.7200
 30
0.0
 0
VERTEX
 8
PARTS
 10
  1.4300
 20
  6.6800
 30
0.0
 0
SEQEND
 8
PARTS
 0
POLYLINE
 8
PARTS
 66
1
 10
0.0
 20
0.0
 30
0.0
 0
VERTEX
 8
PARTS
 10
  1.4300
 20
  6.6800
 30
0.0
 0
VERTEX
 8
PARTS
 10
  1.4300
 20
  6.7100
 30
0.0
 0
SEQEND
 8
PARTS
 0
POLYLINE
 8
PARTS
 66
1
 10
0.0
 20
0.0
 30
0.0
 0
VERTEX
 8
PARTS
 10
  1.4300
 20
  6.7100
 30
0.0
 0
VERTEX
 8
PARTS
 10
  1.4700
 20
  6.6700
 30
0.0
 0
SEQEND
 8
PARTS
 0
POLYLINE
 8
PARTS
 66
1
 10
0.0
 20
0.0
 30
0.0
 0
VERTEX
 8
PARTS
 10
  1.4700
 20
  6.6700
 30
0.0
 0
VERTEX
 8
PARTS
 10
  1.4900
 20
  6.6900
 30
0.0
 0
SEQEND
 8
PARTS
 0
POLYLINE
 8
PARTS
 66
1
 10
0.0
 20
0.0
 30
0.0
 0
VERTEX
 8
PARTS
 10
  1.4900
 20
  6.6900
 30
0.0
 0
VERTEX
 8
PARTS
 10
  1.4900
 20
  6.6500
 30
0.0
 0
SEQEND
 8
PARTS
 0
POLYLINE
 8
PARTS
 66
1
 10
0.0
 20
0.0
 30
0.0
 0
VERTEX
 8
PARTS
 10
  1.4900
 20
  6.6500
 30
0.0
 0
VERTEX
 8
PARTS
 10
  1.4500
 20
  6.6500
 30
0.0
 0
SEQEND
 8
PARTS
 0
POLYLINE
 8
PARTS
 66
1
 10
0.0
 20
0.0
 30
0.0
 0
VERTEX
 8
PARTS
 10
  1.4500
 20
  6.6500
 30
0.0
 0
VERTEX
 8
PARTS
 10
  1.4700
 20
  6.6700
 30
0.0
 0
SEQEND
 8
PARTS
 0
POLYLINE
 8
PARTS
 66
1
 10
0.0
 20
0.0
 30
0.0
 0
VERTEX
 8
PARTS
 10
  1.6000
 20
  6.7000
 30
0.0
 0
VERTEX
 8
PARTS
 10
  1.5500
 20
  6.7000
 30
0.0
 0
SEQEND
 8
PARTS
 0
POLYLINE
 8
PARTS
 66
1
 10
0.0
 20
0.0
 30
0.0
 0
VERTEX
 8
PARTS
 10
  1.5500
 20
  6.7000
 30
0.0
 0
VERTEX
 8
PARTS
 10
  1.5500
 20
  7.0000
 30
0.0
 0
SEQEND
 8
PARTS
 0
POLYLINE
 8
PARTS
 66
1
 10
0.0
 20
0.0
 30
0.0
 0
VERTEX
 8
PARTS
 10
  1.5500
 20
  7.0000
 30
0.0
 0
VERTEX
 8
PARTS
 10
  1.7000
 20
  7.0000
 30
0.0
 0
SEQEND
 8
PARTS
 0
POLYLINE
 8
PARTS
 66
1
 10
0.0
 20
0.0
 30
0.0
 0
VERTEX
 8
PARTS
 10
  1.7000
 20
  6.8000
 30
0.0
 0
VERTEX
 8
PARTS
 10
  1.6000
 20
  6.7000
 30
0.0
 0
SEQEND
 8
PARTS
 0
POLYLINE
 8
PARTS
 66
1
 10
0.0
 20
0.0
 30
0.0
 0
VERTEX
 8
PARTS
 10
  1.6000
 20
  6.7000
 30
0.0
 0
VERTEX
 8
PARTS
 10
  1.6700
 20
  6.6300
 30
0.0
 0
SEQEND
 8
PARTS
 0
POLYLINE
 8
PARTS
 66
1
 10
0.0
 20
0.0
 30
0.0
 0
VERTEX
 8
PARTS
 10
  1.6000
 20
  6.6000
 30
0.0
 0
VERTEX
 8
PARTS
 10
  1.6000
 20
  6.8000
 30
0.0
 0
SEQEND
 8
PARTS
 0
TEXT
 8
PARTTEXT
 10
  1.2000
 20
  8.7186
 30
0.0
 40
  0.0514
 1
U4
 0
TEXT
 8
PARTTEXT
 10
  1.4000
 20
  8.7186
 30
0.0
 40
  0.0514
 1
4N35
 0
LINE
 8
PARTS
 10
  1.0000
 20
  8.6000
 30
0.0
 11
  1.1000
 21
  8.6000
 31
0.0
 0
TEXT
 8
PARTS
 10
  1.0000
 20
  8.6300
 30
0.0
 40
  0.0500
 1
1
 0
LINE
 8
PARTS
 10
  1.8000
 20
  8.6000
 30
0.0
 11
  1.7000
 21
  8.6000
 31
0.0
 0
TEXT
 8
PARTS
 10
  1.7600
 20
  8.6300
 30
0.0
 40
  0.0500
 1
6
 0
LINE
 8
PARTS
 10
  1.0000
 20
  8.1000
 30
0.0
 11
  1.1000
 21
  8.1000
 31
0.0
 0
TEXT
 8
PARTS
 10
  1.0000
 20
  8.1300
 30
0.0
 40
  0.0500
 1
2
 0
LINE
 8
PARTS
 10
  1.8000
 20
  8.4000
 30
0.0
 11
  1.7000
 21
  8.4000
 31
0.0
 0
TEXT
 8
PARTS
 10
  1.7600
 20
  8.4300
 30
0.0
 40
  0.0500
 1
5
 0
LINE
 8
PARTS
 10
  1.8000
 20
  8.2000
 30
0.0
 11
  1.7000
 21
  8.2000
 31
0.0
 0
TEXT
 8
PARTS
 10
  1.7600
 20
  8.2300
 30
0.0
 40
  0.0500
 1
4
 0
POLYLINE
 8
PARTS
 66
1
 70
1
 10
0.0
 20
0.0
 30
0.0
 0
VERTEX
 8
PARTS
 10
  1.6700
 20
  8.2300
 30
0.0
 0
VERTEX
 8
PARTS
 10
  1.7000
 20
  8.2600
 30
0.0
 0
VERTEX
 8
PARTS
 10
  1.7000
 20
  8.2000
 30
0.0
 0
VERTEX
 8
PARTS
 10
  1.6400
 20
  8.2000
 30
0.0
 0
VERTEX
 8
PARTS
 10
  1.6700
 20
  8.2300
 30
0.0
 0
SEQEND
 8
PARTS
 0
POLYLINE
 8
PARTS
 66
1
 70
1
 10
0.0
 20
0.0
 30
0.0
 0
VERTEX
 8
PARTS
 10
  1.1500
 20
  8.4000
 30
0.0
 0
VERTEX
 8
PARTS
 10
  1.2500
 20
  8.4000
 30
0.0
 0
VERTEX
 8
PARTS
 10
  1.2000
 20
  8.3000
 30
0.0
 0
VERTEX
 8
PARTS
 10
  1.1500
 20
  8.4000
 30
0.0
 0
SEQEND
 8
PARTS
 0
POLYLINE
 8
PARTS
 66
1
 10
0.0
 20
0.0
 30
0.0
 0
VERTEX
 8
PARTS
 10
  1.1000
 20
  8.6000
 30
0.0
 0
VERTEX
 8
PARTS
 10
  1.2000
 20
  8.6000
 30
0.0
 0
SEQEND
 8
PARTS
 0
POLYLINE
 8
PARTS
 66
1
 10
0.0
 20
0.0
 30
0.0
 0
VERTEX
 8
PARTS
 10
  1.2000
 20
  8.6000
 30
0.0
 0
VERTEX
 8
PARTS
 10
  1.2000
 20
  8.4000
 30
0.0
 0
SEQEND
 8
PARTS
 0
POLYLINE
 8
PARTS
 66
1
 10
0.0
 20
0.0
 30
0.0
 0
VERTEX
 8
PARTS
 10
  1.1500
 20
  8.3000
 30
0.0
 0
VERTEX
 8
PARTS
 10
  1.2500
 20
  8.3000
 30
0.0
 0
SEQEND
 8
PARTS
 0
POLYLINE
 8
PARTS
 66
1
 10
0.0
 20
0.0
 30
0.0
 0
VERTEX
 8
PARTS
 10
  1.2000
 20
  8.3000
 30
0.0
 0
VERTEX
 8
PARTS
 10
  1.2000
 20
  8.1000
 30
0.0
 0
SEQEND
 8
PARTS
 0
POLYLINE
 8
PARTS
 66
1
 10
0.0
 20
0.0
 30
0.0
 0
VERTEX
 8
PARTS
 10
  1.2000
 20
  8.1000
 30
0.0
 0
VERTEX
 8
PARTS
 10
  1.1000
 20
  8.1000
 30
0.0
 0
SEQEND
 8
PARTS
 0
POLYLINE
 8
PARTS
 66
1
 10
0.0
 20
0.0
 30
0.0
 0
VERTEX
 8
PARTS
 10
  1.3900
 20
  8.4000
 30
0.0
 0
VERTEX
 8
PARTS
 10
  1.4300
 20
  8.3600
 30
0.0
 0
SEQEND
 8
PARTS
 0
POLYLINE
 8
PARTS
 66
1
 10
0.0
 20
0.0
 30
0.0
 0
VERTEX
 8
PARTS
 10
  1.4300
 20
  8.3600
 30
0.0
 0
VERTEX
 8
PARTS
 10
  1.4300
 20
  8.3900
 30
0.0
 0
SEQEND
 8
PARTS
 0
POLYLINE
 8
PARTS
 66
1
 10
0.0
 20
0.0
 30
0.0
 0
VERTEX
 8
PARTS
 10
  1.4300
 20
  8.3900
 30
0.0
 0
VERTEX
 8
PARTS
 10
  1.4700
 20
  8.3500
 30
0.0
 0
SEQEND
 8
PARTS
 0
POLYLINE
 8
PARTS
 66
1
 10
0.0
 20
0.0
 30
0.0
 0
VERTEX
 8
PARTS
 10
  1.4700
 20
  8.3500
 30
0.0
 0
VERTEX
 8
PARTS
 10
  1.4900
 20
  8.3700
 30
0.0
 0
SEQEND
 8
PARTS
 0
POLYLINE
 8
PARTS
 66
1
 10
0.0
 20
0.0
 30
0.0
 0
VERTEX
 8
PARTS
 10
  1.4900
 20
  8.3700
 30
0.0
 0
VERTEX
 8
PARTS
 10
  1.4900
 20
  8.3300
 30
0.0
 0
SEQEND
 8
PARTS
 0
POLYLINE
 8
PARTS
 66
1
 10
0.0
 20
0.0
 30
0.0
 0
VERTEX
 8
PARTS
 10
  1.4900
 20
  8.3300
 30
0.0
 0
VERTEX
 8
PARTS
 10
  1.4500
 20
  8.3300
 30
0.0
 0
SEQEND
 8
PARTS
 0
POLYLINE
 8
PARTS
 66
1
 10
0.0
 20
0.0
 30
0.0
 0
VERTEX
 8
PARTS
 10
  1.4500
 20
  8.3300
 30
0.0
 0
VERTEX
 8
PARTS
 10
  1.4700
 20
  8.3500
 30
0.0
 0
SEQEND
 8
PARTS
 0
POLYLINE
 8
PARTS
 66
1
 10
0.0
 20
0.0
 30
0.0
 0
VERTEX
 8
PARTS
 10
  1.3900
 20
  8.3200
 30
0.0
 0
VERTEX
 8
PARTS
 10
  1.4300
 20
  8.2800
 30
0.0
 0
SEQEND
 8
PARTS
 0
POLYLINE
 8
PARTS
 66
1
 10
0.0
 20
0.0
 30
0.0
 0
VERTEX
 8
PARTS
 10
  1.4300
 20
  8.2800
 30
0.0
 0
VERTEX
 8
PARTS
 10
  1.4300
 20
  8.3100
 30
0.0
 0
SEQEND
 8
PARTS
 0
POLYLINE
 8
PARTS
 66
1
 10
0.0
 20
0.0
 30
0.0
 0
VERTEX
 8
PARTS
 10
  1.4300
 20
  8.3100
 30
0.0
 0
VERTEX
 8
PARTS
 10
  1.4700
 20
  8.2700
 30
0.0
 0
SEQEND
 8
PARTS
 0
POLYLINE
 8
PARTS
 66
1
 10
0.0
 20
0.0
 30
0.0
 0
VERTEX
 8
PARTS
 10
  1.4700
 20
  8.2700
 30
0.0
 0
VERTEX
 8
PARTS
 10
  1.4900
 20
  8.2900
 30
0.0
 0
SEQEND
 8
PARTS
 0
POLYLINE
 8
PARTS
 66
1
 10
0.0
 20
0.0
 30
0.0
 0
VERTEX
 8
PARTS
 10
  1.4900
 20
  8.2900
 30
0.0
 0
VERTEX
 8
PARTS
 10
  1.4900
 20
  8.2500
 30
0.0
 0
SEQEND
 8
PARTS
 0
POLYLINE
 8
PARTS
 66
1
 10
0.0
 20
0.0
 30
0.0
 0
VERTEX
 8
PARTS
 10
  1.4900
 20
  8.2500
 30
0.0
 0
VERTEX
 8
PARTS
 10
  1.4500
 20
  8.2500
 30
0.0
 0
SEQEND
 8
PARTS
 0
POLYLINE
 8
PARTS
 66
1
 10
0.0
 20
0.0
 30
0.0
 0
VERTEX
 8
PARTS
 10
  1.4500
 20
  8.2500
 30
0.0
 0
VERTEX
 8
PARTS
 10
  1.4700
 20
  8.2700
 30
0.0
 0
SEQEND
 8
PARTS
 0
POLYLINE
 8
PARTS
 66
1
 10
0.0
 20
0.0
 30
0.0
 0
VERTEX
 8
PARTS
 10
  1.6000
 20
  8.3000
 30
0.0
 0
VERTEX
 8
PARTS
 10
  1.5500
 20
  8.3000
 30
0.0
 0
SEQEND
 8
PARTS
 0
POLYLINE
 8
PARTS
 66
1
 10
0.0
 20
0.0
 30
0.0
 0
VERTEX
 8
PARTS
 10
  1.5500
 20
  8.3000
 30
0.0
 0
VERTEX
 8
PARTS
 10
  1.5500
 20
  8.6000
 30
0.0
 0
SEQEND
 8
PARTS
 0
POLYLINE
 8
PARTS
 66
1
 10
0.0
 20
0.0
 30
0.0
 0
VERTEX
 8
PARTS
 10
  1.5500
 20
  8.6000
 30
0.0
 0
VERTEX
 8
PARTS
 10
  1.7000
 20
  8.6000
 30
0.0
 0
SEQEND
 8
PARTS
 0
POLYLINE
 8
PARTS
 66
1
 10
0.0
 20
0.0
 30
0.0
 0
VERTEX
 8
PARTS
 10
  1.7000
 20
  8.4000
 30
0.0
 0
VERTEX
 8
PARTS
 10
  1.6000
 20
  8.3000
 30
0.0
 0
SEQEND
 8
PARTS
 0
POLYLINE
 8
PARTS
 66
1
 10
0.0
 20
0.0
 30
0.0
 0
VERTEX
 8
PARTS
 10
  1.6000
 20
  8.3000
 30
0.0
 0
VERTEX
 8
PARTS
 10
  1.6700
 20
  8.2300
 30
0.0
 0
SEQEND
 8
PARTS
 0
POLYLINE
 8
PARTS
 66
1
 10
0.0
 20
0.0
 30
0.0
 0
VERTEX
 8
PARTS
 10
  1.6000
 20
  8.2000
 30
0.0
 0
VERTEX
 8
PARTS
 10
  1.6000
 20
  8.4000
 30
0.0
 0
SEQEND
 8
PARTS
 0
TEXT
 8
PARTTEXT
 10
  0.6000
 20
  6.6186
 30
0.0
 40
  0.0514
 1
R8
 0
TEXT
 8
PARTTEXT
 10
  0.8000
 20
  6.6186
 30
0.0
 40
  0.0514
 1
330
 0
LINE
 8
PARTS
 10
  0.5000
 20
  6.5000
 30
0.0
 11
  0.6000
 21
  6.5000
 31
0.0
 0
LINE
 8
PARTS
 10
  1.0000
 20
  6.5000
 30
0.0
 11
  0.9000
 21
  6.5000
 31
0.0
 0
POLYLINE
 8
PARTS
 66
1
 10
0.0
 20
0.0
 30
0.0
 0
VERTEX
 8
PARTS
 10
  0.6000
 20
  6.5000
 30
0.0
 0
VERTEX
 8
PARTS
 10
  0.6300
 20
  6.5300
 30
0.0
 0
SEQEND
 8
PARTS
 0
POLYLINE
 8
PARTS
 66
1
 10
0.0
 20
0.0
 30
0.0
 0
VERTEX
 8
PARTS
 10
  0.6300
 20
  6.5300
 30
0.0
 0
VERTEX
 8
PARTS
 10
  0.6900
 20
  6.4700
 30
0.0
 0
SEQEND
 8
PARTS
 0
POLYLINE
 8
PARTS
 66
1
 10
0.0
 20
0.0
 30
0.0
 0
VERTEX
 8
PARTS
 10
  0.6900
 20
  6.4700
 30
0.0
 0
VERTEX
 8
PARTS
 10
  0.7500
 20
  6.5300
 30
0.0
 0
SEQEND
 8
PARTS
 0
POLYLINE
 8
PARTS
 66
1
 10
0.0
 20
0.0
 30
0.0
 0
VERTEX
 8
PARTS
 10
  0.7500
 20
  6.5300
 30
0.0
 0
VERTEX
 8
PARTS
 10
  0.8100
 20
  6.4700
 30
0.0
 0
SEQEND
 8
PARTS
 0
POLYLINE
 8
PARTS
 66
1
 10
0.0
 20
0.0
 30
0.0
 0
VERTEX
 8
PARTS
 10
  0.8100
 20
  6.4700
 30
0.0
 0
VERTEX
 8
PARTS
 10
  0.8700
 20
  6.5300
 30
0.0
 0
SEQEND
 8
PARTS
 0
POLYLINE
 8
PARTS
 66
1
 10
0.0
 20
0.0
 30
0.0
 0
VERTEX
 8
PARTS
 10
  0.8700
 20
  6.5300
 30
0.0
 0
VERTEX
 8
PARTS
 10
  0.9000
 20
  6.5000
 30
0.0
 0
SEQEND
 8
PARTS
 0
TEXT
 8
PARTTEXT
 10
 13.7500
 20
  4.7186
 30
0.0
 40
  0.0514
 1
C3
 0
TEXT
 8
PARTTEXT
 10
 13.7500
 20
  4.5886
 30
0.0
 40
  0.0514
 1
1uF
 0
LINE
 8
PARTS
 10
 13.6000
 20
  4.9000
 30
0.0
 11
 13.6000
 21
  4.8000
 31
0.0
 0
TEXT
 8
PARTS
 10
 13.5700
 20
  4.8600
 30
0.0
 40
  0.0500
 50
 90.0000
 1

 0
LINE
 8
PARTS
 10
 13.6000
 20
  4.5000
 30
0.0
 11
 13.6000
 21
  4.6000
 31
0.0
 0
TEXT
 8
PARTS
 10
 13.5700
 20
  4.4800
 30
0.0
 40
  0.0500
 50
 90.0000
 1

 0
POLYLINE
 8
PARTS
 66
1
 10
0.0
 20
0.0
 30
0.0
 0
VERTEX
 8
PARTS
 10
 13.6000
 20
  4.6600
 30
0.0
 0
VERTEX
 8
PARTS
 10
 13.6000
 20
  4.6000
 30
0.0
 0
SEQEND
 8
PARTS
 0
POLYLINE
 8
PARTS
 66
1
 10
0.0
 20
0.0
 30
0.0
 0
VERTEX
 8
PARTS
 10
 13.5000
 20
  4.7000
 30
0.0
 0
VERTEX
 8
PARTS
 10
 13.7000
 20
  4.7000
 30
0.0
 0
SEQEND
 8
PARTS
 0
POLYLINE
 8
PARTS
 66
1
 10
0.0
 20
0.0
 30
0.0
 0
VERTEX
 8
PARTS
 10
 13.6000
 20
  4.8000
 30
0.0
 0
VERTEX
 8
PARTS
 10
 13.6000
 20
  4.7000
 30
0.0
 0
SEQEND
 8
PARTS
 0
POLYLINE
 8
PARTS
 66
1
 10
0.0
 20
0.0
 30
0.0
 0
VERTEX
 8
PARTS
 10
 13.7000
 20
  4.6300
 30
0.0
 42
  0.1654
 0
VERTEX
 8
PARTS
 10
 13.6000
 20
  4.6600
 30
0.0
 0
SEQEND
 8
PARTS
 0
POLYLINE
 8
PARTS
 66
1
 10
0.0
 20
0.0
 30
0.0
 0
VERTEX
 8
PARTS
 10
 13.6000
 20
  4.6600
 30
0.0
 42
  0.1654
 0
VERTEX
 8
PARTS
 10
 13.5000
 20
  4.6300
 30
0.0
 0
SEQEND
 8
PARTS
 0
TEXT
 8
PARTTEXT
 10
 13.6300
 20
  4.7186
 30
0.0
 40
  0.0514
 1
+
 0
TEXT
 8
PARTTEXT
 10
  4.4700
 20
  1.9586
 30
0.0
 40
  0.0514
 1
U16
 0
TEXT
 8
PARTTEXT
 10
  4.5000
 20
  1.5186
 30
0.0
 40
  0.0514
 1
max6314
 0
LINE
 8
PARTS
 10
  4.1000
 20
  1.8000
 30
0.0
 11
  4.4000
 21
  1.8000
 31
0.0
 0
TEXT
 8
PARTS
 10
  4.4900
 20
  1.7750
 30
0.0
 40
  0.0500
 1
GND
 0
TEXT
 8
PARTS
 10
  4.3000
 20
  1.8300
 30
0.0
 40
  0.0500
 1
1
 0
LINE
 8
PARTS
 10
  4.1000
 20
  1.7000
 30
0.0
 11
  4.4000
 21
  1.7000
 31
0.0
 0
TEXT
 8
PARTS
 10
  4.4900
 20
  1.6750
 30
0.0
 40
  0.0500
 1
RESET
 0
TEXT
 8
PARTS
 10
  4.3000
 20
  1.7300
 30
0.0
 40
  0.0500
 1
2
 0
LINE
 8
PARTS
 10
  5.3000
 20
  1.8000
 30
0.0
 11
  5.0000
 21
  1.8000
 31
0.0
 0
TEXT
 8
PARTS
 10
  4.7900
 20
  1.7750
 30
0.0
 40
  0.0500
 1
Vcc
 0
TEXT
 8
PARTS
 10
  5.0600
 20
  1.8300
 30
0.0
 40
  0.0500
 1
4
 0
LINE
 8
PARTS
 10
  5.3000
 20
  1.7000
 30
0.0
 11
  5.0000
 21
  1.7000
 31
0.0
 0
TEXT
 8
PARTS
 10
  4.8300
 20
  1.6750
 30
0.0
 40
  0.0500
 1
MR
 0
TEXT
 8
PARTS
 10
  5.0600
 20
  1.7300
 30
0.0
 40
  0.0500
 1
3
 0
POLYLINE
 8
PARTS
 66
1
 70
1
 10
0.0
 20
0.0
 30
0.0
 0
VERTEX
 8
PARTS
 10
  4.4000
 20
  1.9000
 30
0.0
 0
VERTEX
 8
PARTS
 10
  5.0000
 20
  1.9000
 30
0.0
 0
VERTEX
 8
PARTS
 10
  5.0000
 20
  1.6000
 30
0.0
 0
VERTEX
 8
PARTS
 10
  4.4000
 20
  1.6000
 30
0.0
 0
SEQEND
 8
PARTS
 0
TEXT
 8
PARTTEXT
 10
  4.0500
 20
  8.1086
 30
0.0
 40
  0.0514
 1
JP1
 0
TEXT
 8
PARTTEXT
 10
  4.0000
 20
  7.0186
 30
0.0
 40
  0.0514
 1
TPU5_7
 0
CIRCLE
 8
PARTS
 10
  3.9700
 20
  8.0000
 30
0.0
 40
  0.0300
 0
LINE
 8
PARTS
 10
  3.7000
 20
  8.0000
 30
0.0
 11
  3.9400
 21
  8.0000
 31
0.0
 0
TEXT
 8
PARTS
 10
  4.0900
 20
  7.9750
 30
0.0
 40
  0.0500
 1
1
 0
TEXT
 8
PARTS
 10
  3.9400
 20
  8.0300
 30
0.0
 40
  0.0500
 1

 0
CIRCLE
 8
PARTS
 10
  3.9700
 20
  7.9000
 30
0.0
 40
  0.0300
 0
LINE
 8
PARTS
 10
  3.7000
 20
  7.9000
 30
0.0
 11
  3.9400
 21
  7.9000
 31
0.0
 0
TEXT
 8
PARTS
 10
  4.0900
 20
  7.8750
 30
0.0
 40
  0.0500
 1
2
 0
TEXT
 8
PARTS
 10
  3.9400
 20
  7.9300
 30
0.0
 40
  0.0500
 1

 0
CIRCLE
 8
PARTS
 10
  3.9700
 20
  7.8000
 30
0.0
 40
  0.0300
 0
LINE
 8
PARTS
 10
  3.7000
 20
  7.8000
 30
0.0
 11
  3.9400
 21
  7.8000
 31
0.0
 0
TEXT
 8
PARTS
 10
  4.0900
 20
  7.7750
 30
0.0
 40
  0.0500
 1
3
 0
TEXT
 8
PARTS
 10
  3.9400
 20
  7.8300
 30
0.0
 40
  0.0500
 1

 0
CIRCLE
 8
PARTS
 10
  3.9700
 20
  7.7000
 30
0.0
 40
  0.0300
 0
LINE
 8
PARTS
 10
  3.7000
 20
  7.7000
 30
0.0
 11
  3.9400
 21
  7.7000
 31
0.0
 0
TEXT
 8
PARTS
 10
  4.0900
 20
  7.6750
 30
0.0
 40
  0.0500
 1
4
 0
TEXT
 8
PARTS
 10
  3.9400
 20
  7.7300
 30
0.0
 40
  0.0500
 1

 0
CIRCLE
 8
PARTS
 10
  3.9700
 20
  7.6000
 30
0.0
 40
  0.0300
 0
LINE
 8
PARTS
 10
  3.7000
 20
  7.6000
 30
0.0
 11
  3.9400
 21
  7.6000
 31
0.0
 0
TEXT
 8
PARTS
 10
  4.0900
 20
  7.5750
 30
0.0
 40
  0.0500
 1
5
 0
TEXT
 8
PARTS
 10
  3.9400
 20
  7.6300
 30
0.0
 40
  0.0500
 1

 0
CIRCLE
 8
PARTS
 10
  3.9700
 20
  7.5000
 30
0.0
 40
  0.0300
 0
LINE
 8
PARTS
 10
  3.7000
 20
  7.5000
 30
0.0
 11
  3.9400
 21
  7.5000
 31
0.0
 0
TEXT
 8
PARTS
 10
  4.0900
 20
  7.4750
 30
0.0
 40
  0.0500
 1
6
 0
TEXT
 8
PARTS
 10
  3.9400
 20
  7.5300
 30
0.0
 40
  0.0500
 1

 0
CIRCLE
 8
PARTS
 10
  3.9700
 20
  7.4000
 30
0.0
 40
  0.0300
 0
LINE
 8
PARTS
 10
  3.7000
 20
  7.4000
 30
0.0
 11
  3.9400
 21
  7.4000
 31
0.0
 0
TEXT
 8
PARTS
 10
  4.0900
 20
  7.3750
 30
0.0
 40
  0.0500
 1
7
 0
TEXT
 8
PARTS
 10
  3.9400
 20
  7.4300
 30
0.0
 40
  0.0500
 1

 0
CIRCLE
 8
PARTS
 10
  3.9700
 20
  7.3000
 30
0.0
 40
  0.0300
 0
LINE
 8
PARTS
 10
  3.7000
 20
  7.3000
 30
0.0
 11
  3.9400
 21
  7.3000
 31
0.0
 0
TEXT
 8
PARTS
 10
  4.0900
 20
  7.2750
 30
0.0
 40
  0.0500
 1
8
 0
TEXT
 8
PARTS
 10
  3.9400
 20
  7.3300
 30
0.0
 40
  0.0500
 1

 0
POLYLINE
 8
PARTS
 66
1
 70
1
 10
0.0
 20
0.0
 30
0.0
 0
VERTEX
 8
PARTS
 10
  4.0000
 20
  8.1000
 30
0.0
 0
VERTEX
 8
PARTS
 10
  4.3000
 20
  8.1000
 30
0.0
 0
VERTEX
 8
PARTS
 10
  4.3000
 20
  7.2000
 30
0.0
 0
VERTEX
 8
PARTS
 10
  4.0000
 20
  7.2000
 30
0.0
 0
SEQEND
 8
PARTS
 0
TEXT
 8
PARTTEXT
 10
  0.6000
 20
  8.2186
 30
0.0
 40
  0.0514
 1
R4
 0
TEXT
 8
PARTTEXT
 10
  0.8000
 20
  8.2186
 30
0.0
 40
  0.0514
 1
330
 0
LINE
 8
PARTS
 10
  0.5000
 20
  8.1000
 30
0.0
 11
  0.6000
 21
  8.1000
 31
0.0
 0
LINE
 8
PARTS
 10
  1.0000
 20
  8.1000
 30
0.0
 11
  0.9000
 21
  8.1000
 31
0.0
 0
POLYLINE
 8
PARTS
 66
1
 10
0.0
 20
0.0
 30
0.0
 0
VERTEX
 8
PARTS
 10
  0.6000
 20
  8.1000
 30
0.0
 0
VERTEX
 8
PARTS
 10
  0.6300
 20
  8.1300
 30
0.0
 0
SEQEND
 8
PARTS
 0
POLYLINE
 8
PARTS
 66
1
 10
0.0
 20
0.0
 30
0.0
 0
VERTEX
 8
PARTS
 10
  0.6300
 20
  8.1300
 30
0.0
 0
VERTEX
 8
PARTS
 10
  0.6900
 20
  8.0700
 30
0.0
 0
SEQEND
 8
PARTS
 0
POLYLINE
 8
PARTS
 66
1
 10
0.0
 20
0.0
 30
0.0
 0
VERTEX
 8
PARTS
 10
  0.6900
 20
  8.0700
 30
0.0
 0
VERTEX
 8
PARTS
 10
  0.7500
 20
  8.1300
 30
0.0
 0
SEQEND
 8
PARTS
 0
POLYLINE
 8
PARTS
 66
1
 10
0.0
 20
0.0
 30
0.0
 0
VERTEX
 8
PARTS
 10
  0.7500
 20
  8.1300
 30
0.0
 0
VERTEX
 8
PARTS
 10
  0.8100
 20
  8.0700
 30
0.0
 0
SEQEND
 8
PARTS
 0
POLYLINE
 8
PARTS
 66
1
 10
0.0
 20
0.0
 30
0.0
 0
VERTEX
 8
PARTS
 10
  0.8100
 20
  8.0700
 30
0.0
 0
VERTEX
 8
PARTS
 10
  0.8700
 20
  8.1300
 30
0.0
 0
SEQEND
 8
PARTS
 0
POLYLINE
 8
PARTS
 66
1
 10
0.0
 20
0.0
 30
0.0
 0
VERTEX
 8
PARTS
 10
  0.8700
 20
  8.1300
 30
0.0
 0
VERTEX
 8
PARTS
 10
  0.9000
 20
  8.1000
 30
0.0
 0
SEQEND
 8
PARTS
 0
TEXT
 8
PARTTEXT
 10
  6.5500
 20
  6.7986
 30
0.0
 40
  0.0514
 1
E1
 0
TEXT
 8
PARTTEXT
 10
  6.6000
 20
  6.7186
 30
0.0
 40
  0.0514
 1
ANTENNA
 0
LINE
 8
PARTS
 10
  6.6000
 20
  6.3000
 30
0.0
 11
  6.6000
 21
  6.6000
 31
0.0
 0
TEXT
 8
PARTS
 10
  6.5700
 20
  6.4800
 30
0.0
 40
  0.0500
 50
 90.0000
 1
1
 0
POLYLINE
 8
PARTS
 66
1
 10
0.0
 20
0.0
 30
0.0
 0
VERTEX
 8
PARTS
 10
  6.5000
 20
  6.7000
 30
0.0
 0
VERTEX
 8
PARTS
 10
  6.7000
 20
  6.7000
 30
0.0
 0
SEQEND
 8
PARTS
 0
POLYLINE
 8
PARTS
 66
1
 10
0.0
 20
0.0
 30
0.0
 0
VERTEX
 8
PARTS
 10
  6.7000
 20
  6.7000
 30
0.0
 0
VERTEX
 8
PARTS
 10
  6.6000
 20
  6.6000
 30
0.0
 0
SEQEND
 8
PARTS
 0
POLYLINE
 8
PARTS
 66
1
 10
0.0
 20
0.0
 30
0.0
 0
VERTEX
 8
PARTS
 10
  6.6000
 20
  6.6000
 30
0.0
 0
VERTEX
 8
PARTS
 10
  6.5000
 20
  6.7000
 30
0.0
 0
SEQEND
 8
PARTS
 0
POLYLINE
 8
PARTS
 66
1
 10
0.0
 20
0.0
 30
0.0
 0
VERTEX
 8
PARTS
 10
  6.6000
 20
  6.7000
 30
0.0
 0
VERTEX
 8
PARTS
 10
  6.6000
 20
  6.6000
 30
0.0
 0
SEQEND
 8
PARTS
 0
TEXT
 8
PARTTEXT
 10
  1.9000
 20
  6.7186
 30
0.0
 40
  0.0514
 1
R7
 0
TEXT
 8
PARTTEXT
 10
  2.1000
 20
  6.7186
 30
0.0
 40
  0.0514
 1
1k
 0
LINE
 8
PARTS
 10
  1.8000
 20
  6.6000
 30
0.0
 11
  1.9000
 21
  6.6000
 31
0.0
 0
LINE
 8
PARTS
 10
  2.3000
 20
  6.6000
 30
0.0
 11
  2.2000
 21
  6.6000
 31
0.0
 0
POLYLINE
 8
PARTS
 66
1
 10
0.0
 20
0.0
 30
0.0
 0
VERTEX
 8
PARTS
 10
  1.9000
 20
  6.6000
 30
0.0
 0
VERTEX
 8
PARTS
 10
  1.9300
 20
  6.6300
 30
0.0
 0
SEQEND
 8
PARTS
 0
POLYLINE
 8
PARTS
 66
1
 10
0.0
 20
0.0
 30
0.0
 0
VERTEX
 8
PARTS
 10
  1.9300
 20
  6.6300
 30
0.0
 0
VERTEX
 8
PARTS
 10
  1.9900
 20
  6.5700
 30
0.0
 0
SEQEND
 8
PARTS
 0
POLYLINE
 8
PARTS
 66
1
 10
0.0
 20
0.0
 30
0.0
 0
VERTEX
 8
PARTS
 10
  1.9900
 20
  6.5700
 30
0.0
 0
VERTEX
 8
PARTS
 10
  2.0500
 20
  6.6300
 30
0.0
 0
SEQEND
 8
PARTS
 0
POLYLINE
 8
PARTS
 66
1
 10
0.0
 20
0.0
 30
0.0
 0
VERTEX
 8
PARTS
 10
  2.0500
 20
  6.6300
 30
0.0
 0
VERTEX
 8
PARTS
 10
  2.1100
 20
  6.5700
 30
0.0
 0
SEQEND
 8
PARTS
 0
POLYLINE
 8
PARTS
 66
1
 10
0.0
 20
0.0
 30
0.0
 0
VERTEX
 8
PARTS
 10
  2.1100
 20
  6.5700
 30
0.0
 0
VERTEX
 8
PARTS
 10
  2.1700
 20
  6.6300
 30
0.0
 0
SEQEND
 8
PARTS
 0
POLYLINE
 8
PARTS
 66
1
 10
0.0
 20
0.0
 30
0.0
 0
VERTEX
 8
PARTS
 10
  2.1700
 20
  6.6300
 30
0.0
 0
VERTEX
 8
PARTS
 10
  2.2000
 20
  6.6000
 30
0.0
 0
SEQEND
 8
PARTS
 0
TEXT
 8
PARTTEXT
 10
  1.9000
 20
  8.3186
 30
0.0
 40
  0.0514
 1
R3
 0
TEXT
 8
PARTTEXT
 10
  2.1000
 20
  8.3186
 30
0.0
 40
  0.0514
 1
1k
 0
LINE
 8
PARTS
 10
  1.8000
 20
  8.2000
 30
0.0
 11
  1.9000
 21
  8.2000
 31
0.0
 0
LINE
 8
PARTS
 10
  2.3000
 20
  8.2000
 30
0.0
 11
  2.2000
 21
  8.2000
 31
0.0
 0
POLYLINE
 8
PARTS
 66
1
 10
0.0
 20
0.0
 30
0.0
 0
VERTEX
 8
PARTS
 10
  1.9000
 20
  8.2000
 30
0.0
 0
VERTEX
 8
PARTS
 10
  1.9300
 20
  8.2300
 30
0.0
 0
SEQEND
 8
PARTS
 0
POLYLINE
 8
PARTS
 66
1
 10
0.0
 20
0.0
 30
0.0
 0
VERTEX
 8
PARTS
 10
  1.9300
 20
  8.2300
 30
0.0
 0
VERTEX
 8
PARTS
 10
  1.9900
 20
  8.1700
 30
0.0
 0
SEQEND
 8
PARTS
 0
POLYLINE
 8
PARTS
 66
1
 10
0.0
 20
0.0
 30
0.0
 0
VERTEX
 8
PARTS
 10
  1.9900
 20
  8.1700
 30
0.0
 0
VERTEX
 8
PARTS
 10
  2.0500
 20
  8.2300
 30
0.0
 0
SEQEND
 8
PARTS
 0
POLYLINE
 8
PARTS
 66
1
 10
0.0
 20
0.0
 30
0.0
 0
VERTEX
 8
PARTS
 10
  2.0500
 20
  8.2300
 30
0.0
 0
VERTEX
 8
PARTS
 10
  2.1100
 20
  8.1700
 30
0.0
 0
SEQEND
 8
PARTS
 0
POLYLINE
 8
PARTS
 66
1
 10
0.0
 20
0.0
 30
0.0
 0
VERTEX
 8
PARTS
 10
  2.1100
 20
  8.1700
 30
0.0
 0
VERTEX
 8
PARTS
 10
  2.1700
 20
  8.2300
 30
0.0
 0
SEQEND
 8
PARTS
 0
POLYLINE
 8
PARTS
 66
1
 10
0.0
 20
0.0
 30
0.0
 0
VERTEX
 8
PARTS
 10
  2.1700
 20
  8.2300
 30
0.0
 0
VERTEX
 8
PARTS
 10
  2.2000
 20
  8.2000
 30
0.0
 0
SEQEND
 8
PARTS
 0
TEXT
 8
PARTTEXT
 10
  1.2000
 20
  9.5186
 30
0.0
 40
  0.0514
 1
U1
 0
TEXT
 8
PARTTEXT
 10
  1.4000
 20
  9.5186
 30
0.0
 40
  0.0514
 1
4N35
 0
LINE
 8
PARTS
 10
  1.0000
 20
  9.4000
 30
0.0
 11
  1.1000
 21
  9.4000
 31
0.0
 0
TEXT
 8
PARTS
 10
  1.0000
 20
  9.4300
 30
0.0
 40
  0.0500
 1
1
 0
LINE
 8
PARTS
 10
  1.8000
 20
  9.4000
 30
0.0
 11
  1.7000
 21
  9.4000
 31
0.0
 0
TEXT
 8
PARTS
 10
  1.7600
 20
  9.4300
 30
0.0
 40
  0.0500
 1
6
 0
LINE
 8
PARTS
 10
  1.0000
 20
  8.9000
 30
0.0
 11
  1.1000
 21
  8.9000
 31
0.0
 0
TEXT
 8
PARTS
 10
  1.0000
 20
  8.9300
 30
0.0
 40
  0.0500
 1
2
 0
LINE
 8
PARTS
 10
  1.8000
 20
  9.2000
 30
0.0
 11
  1.7000
 21
  9.2000
 31
0.0
 0
TEXT
 8
PARTS
 10
  1.7600
 20
  9.2300
 30
0.0
 40
  0.0500
 1
5
 0
LINE
 8
PARTS
 10
  1.8000
 20
  9.0000
 30
0.0
 11
  1.7000
 21
  9.0000
 31
0.0
 0
TEXT
 8
PARTS
 10
  1.7600
 20
  9.0300
 30
0.0
 40
  0.0500
 1
4
 0
POLYLINE
 8
PARTS
 66
1
 70
1
 10
0.0
 20
0.0
 30
0.0
 0
VERTEX
 8
PARTS
 10
  1.6700
 20
  9.0300
 30
0.0
 0
VERTEX
 8
PARTS
 10
  1.7000
 20
  9.0600
 30
0.0
 0
VERTEX
 8
PARTS
 10
  1.7000
 20
  9.0000
 30
0.0
 0
VERTEX
 8
PARTS
 10
  1.6400
 20
  9.0000
 30
0.0
 0
VERTEX
 8
PARTS
 10
  1.6700
 20
  9.0300
 30
0.0
 0
SEQEND
 8
PARTS
 0
POLYLINE
 8
PARTS
 66
1
 70
1
 10
0.0
 20
0.0
 30
0.0
 0
VERTEX
 8
PARTS
 10
  1.1500
 20
  9.2000
 30
0.0
 0
VERTEX
 8
PARTS
 10
  1.2500
 20
  9.2000
 30
0.0
 0
VERTEX
 8
PARTS
 10
  1.2000
 20
  9.1000
 30
0.0
 0
VERTEX
 8
PARTS
 10
  1.1500
 20
  9.2000
 30
0.0
 0
SEQEND
 8
PARTS
 0
POLYLINE
 8
PARTS
 66
1
 10
0.0
 20
0.0
 30
0.0
 0
VERTEX
 8
PARTS
 10
  1.1000
 20
  9.4000
 30
0.0
 0
VERTEX
 8
PARTS
 10
  1.2000
 20
  9.4000
 30
0.0
 0
SEQEND
 8
PARTS
 0
POLYLINE
 8
PARTS
 66
1
 10
0.0
 20
0.0
 30
0.0
 0
VERTEX
 8
PARTS
 10
  1.2000
 20
  9.4000
 30
0.0
 0
VERTEX
 8
PARTS
 10
  1.2000
 20
  9.2000
 30
0.0
 0
SEQEND
 8
PARTS
 0
POLYLINE
 8
PARTS
 66
1
 10
0.0
 20
0.0
 30
0.0
 0
VERTEX
 8
PARTS
 10
  1.1500
 20
  9.1000
 30
0.0
 0
VERTEX
 8
PARTS
 10
  1.2500
 20
  9.1000
 30
0.0
 0
SEQEND
 8
PARTS
 0
POLYLINE
 8
PARTS
 66
1
 10
0.0
 20
0.0
 30
0.0
 0
VERTEX
 8
PARTS
 10
  1.2000
 20
  9.1000
 30
0.0
 0
VERTEX
 8
PARTS
 10
  1.2000
 20
  8.9000
 30
0.0
 0
SEQEND
 8
PARTS
 0
POLYLINE
 8
PARTS
 66
1
 10
0.0
 20
0.0
 30
0.0
 0
VERTEX
 8
PARTS
 10
  1.2000
 20
  8.9000
 30
0.0
 0
VERTEX
 8
PARTS
 10
  1.1000
 20
  8.9000
 30
0.0
 0
SEQEND
 8
PARTS
 0
POLYLINE
 8
PARTS
 66
1
 10
0.0
 20
0.0
 30
0.0
 0
VERTEX
 8
PARTS
 10
  1.3900
 20
  9.2000
 30
0.0
 0
VERTEX
 8
PARTS
 10
  1.4300
 20
  9.1600
 30
0.0
 0
SEQEND
 8
PARTS
 0
POLYLINE
 8
PARTS
 66
1
 10
0.0
 20
0.0
 30
0.0
 0
VERTEX
 8
PARTS
 10
  1.4300
 20
  9.1600
 30
0.0
 0
VERTEX
 8
PARTS
 10
  1.4300
 20
  9.1900
 30
0.0
 0
SEQEND
 8
PARTS
 0
POLYLINE
 8
PARTS
 66
1
 10
0.0
 20
0.0
 30
0.0
 0
VERTEX
 8
PARTS
 10
  1.4300
 20
  9.1900
 30
0.0
 0
VERTEX
 8
PARTS
 10
  1.4700
 20
  9.1500
 30
0.0
 0
SEQEND
 8
PARTS
 0
POLYLINE
 8
PARTS
 66
1
 10
0.0
 20
0.0
 30
0.0
 0
VERTEX
 8
PARTS
 10
  1.4700
 20
  9.1500
 30
0.0
 0
VERTEX
 8
PARTS
 10
  1.4900
 20
  9.1700
 30
0.0
 0
SEQEND
 8
PARTS
 0
POLYLINE
 8
PARTS
 66
1
 10
0.0
 20
0.0
 30
0.0
 0
VERTEX
 8
PARTS
 10
  1.4900
 20
  9.1700
 30
0.0
 0
VERTEX
 8
PARTS
 10
  1.4900
 20
  9.1300
 30
0.0
 0
SEQEND
 8
PARTS
 0
POLYLINE
 8
PARTS
 66
1
 10
0.0
 20
0.0
 30
0.0
 0
VERTEX
 8
PARTS
 10
  1.4900
 20
  9.1300
 30
0.0
 0
VERTEX
 8
PARTS
 10
  1.4500
 20
  9.1300
 30
0.0
 0
SEQEND
 8
PARTS
 0
POLYLINE
 8
PARTS
 66
1
 10
0.0
 20
0.0
 30
0.0
 0
VERTEX
 8
PARTS
 10
  1.4500
 20
  9.1300
 30
0.0
 0
VERTEX
 8
PARTS
 10
  1.4700
 20
  9.1500
 30
0.0
 0
SEQEND
 8
PARTS
 0
POLYLINE
 8
PARTS
 66
1
 10
0.0
 20
0.0
 30
0.0
 0
VERTEX
 8
PARTS
 10
  1.3900
 20
  9.1200
 30
0.0
 0
VERTEX
 8
PARTS
 10
  1.4300
 20
  9.0800
 30
0.0
 0
SEQEND
 8
PARTS
 0
POLYLINE
 8
PARTS
 66
1
 10
0.0
 20
0.0
 30
0.0
 0
VERTEX
 8
PARTS
 10
  1.4300
 20
  9.0800
 30
0.0
 0
VERTEX
 8
PARTS
 10
  1.4300
 20
  9.1100
 30
0.0
 0
SEQEND
 8
PARTS
 0
POLYLINE
 8
PARTS
 66
1
 10
0.0
 20
0.0
 30
0.0
 0
VERTEX
 8
PARTS
 10
  1.4300
 20
  9.1100
 30
0.0
 0
VERTEX
 8
PARTS
 10
  1.4700
 20
  9.0700
 30
0.0
 0
SEQEND
 8
PARTS
 0
POLYLINE
 8
PARTS
 66
1
 10
0.0
 20
0.0
 30
0.0
 0
VERTEX
 8
PARTS
 10
  1.4700
 20
  9.0700
 30
0.0
 0
VERTEX
 8
PARTS
 10
  1.4900
 20
  9.0900
 30
0.0
 0
SEQEND
 8
PARTS
 0
POLYLINE
 8
PARTS
 66
1
 10
0.0
 20
0.0
 30
0.0
 0
VERTEX
 8
PARTS
 10
  1.4900
 20
  9.0900
 30
0.0
 0
VERTEX
 8
PARTS
 10
  1.4900
 20
  9.0500
 30
0.0
 0
SEQEND
 8
PARTS
 0
POLYLINE
 8
PARTS
 66
1
 10
0.0
 20
0.0
 30
0.0
 0
VERTEX
 8
PARTS
 10
  1.4900
 20
  9.0500
 30
0.0
 0
VERTEX
 8
PARTS
 10
  1.4500
 20
  9.0500
 30
0.0
 0
SEQEND
 8
PARTS
 0
POLYLINE
 8
PARTS
 66
1
 10
0.0
 20
0.0
 30
0.0
 0
VERTEX
 8
PARTS
 10
  1.4500
 20
  9.0500
 30
0.0
 0
VERTEX
 8
PARTS
 10
  1.4700
 20
  9.0700
 30
0.0
 0
SEQEND
 8
PARTS
 0
POLYLINE
 8
PARTS
 66
1
 10
0.0
 20
0.0
 30
0.0
 0
VERTEX
 8
PARTS
 10
  1.6000
 20
  9.1000
 30
0.0
 0
VERTEX
 8
PARTS
 10
  1.5500
 20
  9.1000
 30
0.0
 0
SEQEND
 8
PARTS
 0
POLYLINE
 8
PARTS
 66
1
 10
0.0
 20
0.0
 30
0.0
 0
VERTEX
 8
PARTS
 10
  1.5500
 20
  9.1000
 30
0.0
 0
VERTEX
 8
PARTS
 10
  1.5500
 20
  9.4000
 30
0.0
 0
SEQEND
 8
PARTS
 0
POLYLINE
 8
PARTS
 66
1
 10
0.0
 20
0.0
 30
0.0
 0
VERTEX
 8
PARTS
 10
  1.5500
 20
  9.4000
 30
0.0
 0
VERTEX
 8
PARTS
 10
  1.7000
 20
  9.4000
 30
0.0
 0
SEQEND
 8
PARTS
 0
POLYLINE
 8
PARTS
 66
1
 10
0.0
 20
0.0
 30
0.0
 0
VERTEX
 8
PARTS
 10
  1.7000
 20
  9.2000
 30
0.0
 0
VERTEX
 8
PARTS
 10
  1.6000
 20
  9.1000
 30
0.0
 0
SEQEND
 8
PARTS
 0
POLYLINE
 8
PARTS
 66
1
 10
0.0
 20
0.0
 30
0.0
 0
VERTEX
 8
PARTS
 10
  1.6000
 20
  9.1000
 30
0.0
 0
VERTEX
 8
PARTS
 10
  1.6700
 20
  9.0300
 30
0.0
 0
SEQEND
 8
PARTS
 0
POLYLINE
 8
PARTS
 66
1
 10
0.0
 20
0.0
 30
0.0
 0
VERTEX
 8
PARTS
 10
  1.6000
 20
  9.0000
 30
0.0
 0
VERTEX
 8
PARTS
 10
  1.6000
 20
  9.2000
 30
0.0
 0
SEQEND
 8
PARTS
 0
TEXT
 8
PARTTEXT
 10
 13.6000
 20
  2.0186
 30
0.0
 40
  0.0514
 1
J5
 0
TEXT
 8
PARTTEXT
 10
 13.5000
 20
  1.6186
 30
0.0
 40
  0.0514
 1
CON6
 0
LINE
 8
PARTS
 10
 13.9000
 20
  1.9000
 30
0.0
 11
 13.8000
 21
  1.9000
 31
0.0
 0
TEXT
 8
PARTS
 10
 13.6700
 20
  1.8750
 30
0.0
 40
  0.0500
 1
1
 0
TEXT
 8
PARTS
 10
 13.8600
 20
  1.9300
 30
0.0
 40
  0.0500
 1

 0
LINE
 8
PARTS
 10
 13.9000
 20
  1.8000
 30
0.0
 11
 13.8000
 21
  1.8000
 31
0.0
 0
TEXT
 8
PARTS
 10
 13.6700
 20
  1.7750
 30
0.0
 40
  0.0500
 1
2
 0
TEXT
 8
PARTS
 10
 13.8600
 20
  1.8300
 30
0.0
 40
  0.0500
 1

 0
POLYLINE
 8
PARTS
 66
1
 70
1
 10
0.0
 20
0.0
 30
0.0
 0
VERTEX
 8
PARTS
 10
 13.8000
 20
  2.0000
 30
0.0
 0
VERTEX
 8
PARTS
 10
 13.6000
 20
  2.0000
 30
0.0
 0
VERTEX
 8
PARTS
 10
 13.6000
 20
  1.7000
 30
0.0
 0
VERTEX
 8
PARTS
 10
 13.8000
 20
  1.7000
 30
0.0
 0
SEQEND
 8
PARTS
 0
TEXT
 8
PARTTEXT
 10
  6.2500
 20
  5.5086
 30
0.0
 40
  0.0514
 1
SW1
 0
TEXT
 8
PARTTEXT
 10
  6.2500
 20
  5.0086
 30
0.0
 40
  0.0514
 1
SW DIP-3
 0
LINE
 8
PARTS
 10
  5.9000
 20
  5.4000
 30
0.0
 11
  6.2000
 21
  5.4000
 31
0.0
 0
TEXT
 8
PARTS
 10
  6.1000
 20
  5.4300
 30
0.0
 40
  0.0500
 1
1
 0
LINE
 8
PARTS
 10
  5.9000
 20
  5.3000
 30
0.0
 11
  6.2000
 21
  5.3000
 31
0.0
 0
TEXT
 8
PARTS
 10
  6.1000
 20
  5.3300
 30
0.0
 40
  0.0500
 1
2
 0
LINE
 8
PARTS
 10
  5.9000
 20
  5.2000
 30
0.0
 11
  6.2000
 21
  5.2000
 31
0.0
 0
TEXT
 8
PARTS
 10
  6.1000
 20
  5.2300
 30
0.0
 40
  0.0500
 1
3
 0
LINE
 8
PARTS
 10
  6.9000
 20
  5.4000
 30
0.0
 11
  6.6000
 21
  5.4000
 31
0.0
 0
TEXT
 8
PARTS
 10
  6.6600
 20
  5.4300
 30
0.0
 40
  0.0500
 1
6
 0
LINE
 8
PARTS
 10
  6.9000
 20
  5.3000
 30
0.0
 11
  6.6000
 21
  5.3000
 31
0.0
 0
TEXT
 8
PARTS
 10
  6.6600
 20
  5.3300
 30
0.0
 40
  0.0500
 1
5
 0
LINE
 8
PARTS
 10
  6.9000
 20
  5.2000
 30
0.0
 11
  6.6000
 21
  5.2000
 31
0.0
 0
TEXT
 8
PARTS
 10
  6.6600
 20
  5.2300
 30
0.0
 40
  0.0500
 1
4
 0
POLYLINE
 8
PARTS
 66
1
 10
0.0
 20
0.0
 30
0.0
 0
VERTEX
 8
PARTS
 10
  6.2700
 20
  5.4200
 30
0.0
 0
VERTEX
 8
PARTS
 10
  6.5300
 20
  5.4200
 30
0.0
 0
SEQEND
 8
PARTS
 0
POLYLINE
 8
PARTS
 66
1
 10
0.0
 20
0.0
 30
0.0
 0
VERTEX
 8
PARTS
 10
  6.5300
 20
  5.4200
 30
0.0
 0
VERTEX
 8
PARTS
 10
  6.5300
 20
  5.3800
 30
0.0
 0
SEQEND
 8
PARTS
 0
POLYLINE
 8
PARTS
 66
1
 10
0.0
 20
0.0
 30
0.0
 0
VERTEX
 8
PARTS
 10
  6.5300
 20
  5.3800
 30
0.0
 0
VERTEX
 8
PARTS
 10
  6.2700
 20
  5.3800
 30
0.0
 0
SEQEND
 8
PARTS
 0
POLYLINE
 8
PARTS
 66
1
 10
0.0
 20
0.0
 30
0.0
 0
VERTEX
 8
PARTS
 10
  6.2700
 20
  5.3800
 30
0.0
 0
VERTEX
 8
PARTS
 10
  6.2700
 20
  5.4200
 30
0.0
 0
SEQEND
 8
PARTS
 0
POLYLINE
 8
PARTS
 66
1
 10
0.0
 20
0.0
 30
0.0
 0
VERTEX
 8
PARTS
 10
  6.4000
 20
  5.4200
 30
0.0
 0
VERTEX
 8
PARTS
 10
  6.4000
 20
  5.3800
 30
0.0
 0
SEQEND
 8
PARTS
 0
POLYLINE
 8
PARTS
 66
1
 10
0.0
 20
0.0
 30
0.0
 0
VERTEX
 8
PARTS
 10
  6.2000
 20
  5.5000
 30
0.0
 0
VERTEX
 8
PARTS
 10
  6.6000
 20
  5.5000
 30
0.0
 0
SEQEND
 8
PARTS
 0
POLYLINE
 8
PARTS
 66
1
 10
0.0
 20
0.0
 30
0.0
 0
VERTEX
 8
PARTS
 10
  6.4400
 20
  5.4500
 30
0.0
 0
VERTEX
 8
PARTS
 10
  6.4300
 20
  5.4600
 30
0.0
 0
SEQEND
 8
PARTS
 0
POLYLINE
 8
PARTS
 66
1
 10
0.0
 20
0.0
 30
0.0
 0
VERTEX
 8
PARTS
 10
  6.4300
 20
  5.4600
 30
0.0
 0
VERTEX
 8
PARTS
 10
  6.5500
 20
  5.4600
 30
0.0
 0
SEQEND
 8
PARTS
 0
POLYLINE
 8
PARTS
 66
1
 10
0.0
 20
0.0
 30
0.0
 0
VERTEX
 8
PARTS
 10
  6.5500
 20
  5.4800
 30
0.0
 0
VERTEX
 8
PARTS
 10
  6.5500
 20
  5.4400
 30
0.0
 0
SEQEND
 8
PARTS
 0
POLYLINE
 8
PARTS
 66
1
 10
0.0
 20
0.0
 30
0.0
 0
VERTEX
 8
PARTS
 10
  6.2700
 20
  5.3200
 30
0.0
 0
VERTEX
 8
PARTS
 10
  6.5300
 20
  5.3200
 30
0.0
 0
SEQEND
 8
PARTS
 0
POLYLINE
 8
PARTS
 66
1
 10
0.0
 20
0.0
 30
0.0
 0
VERTEX
 8
PARTS
 10
  6.5300
 20
  5.3200
 30
0.0
 0
VERTEX
 8
PARTS
 10
  6.5300
 20
  5.2800
 30
0.0
 0
SEQEND
 8
PARTS
 0
POLYLINE
 8
PARTS
 66
1
 10
0.0
 20
0.0
 30
0.0
 0
VERTEX
 8
PARTS
 10
  6.5300
 20
  5.2800
 30
0.0
 0
VERTEX
 8
PARTS
 10
  6.2700
 20
  5.2800
 30
0.0
 0
SEQEND
 8
PARTS
 0
POLYLINE
 8
PARTS
 66
1
 10
0.0
 20
0.0
 30
0.0
 0
VERTEX
 8
PARTS
 10
  6.2700
 20
  5.2800
 30
0.0
 0
VERTEX
 8
PARTS
 10
  6.2700
 20
  5.3200
 30
0.0
 0
SEQEND
 8
PARTS
 0
POLYLINE
 8
PARTS
 66
1
 10
0.0
 20
0.0
 30
0.0
 0
VERTEX
 8
PARTS
 10
  6.4000
 20
  5.3200
 30
0.0
 0
VERTEX
 8
PARTS
 10
  6.4000
 20
  5.2800
 30
0.0
 0
SEQEND
 8
PARTS
 0
POLYLINE
 8
PARTS
 66
1
 10
0.0
 20
0.0
 30
0.0
 0
VERTEX
 8
PARTS
 10
  6.2700
 20
  5.2200
 30
0.0
 0
VERTEX
 8
PARTS
 10
  6.5300
 20
  5.2200
 30
0.0
 0
SEQEND
 8
PARTS
 0
POLYLINE
 8
PARTS
 66
1
 10
0.0
 20
0.0
 30
0.0
 0
VERTEX
 8
PARTS
 10
  6.5300
 20
  5.2200
 30
0.0
 0
VERTEX
 8
PARTS
 10
  6.5300
 20
  5.1800
 30
0.0
 0
SEQEND
 8
PARTS
 0
POLYLINE
 8
PARTS
 66
1
 10
0.0
 20
0.0
 30
0.0
 0
VERTEX
 8
PARTS
 10
  6.5300
 20
  5.1800
 30
0.0
 0
VERTEX
 8
PARTS
 10
  6.2700
 20
  5.1800
 30
0.0
 0
SEQEND
 8
PARTS
 0
POLYLINE
 8
PARTS
 66
1
 10
0.0
 20
0.0
 30
0.0
 0
VERTEX
 8
PARTS
 10
  6.2700
 20
  5.1800
 30
0.0
 0
VERTEX
 8
PARTS
 10
  6.2700
 20
  5.2200
 30
0.0
 0
SEQEND
 8
PARTS
 0
POLYLINE
 8
PARTS
 66
1
 10
0.0
 20
0.0
 30
0.0
 0
VERTEX
 8
PARTS
 10
  6.4000
 20
  5.2200
 30
0.0
 0
VERTEX
 8
PARTS
 10
  6.4000
 20
  5.1800
 30
0.0
 0
SEQEND
 8
PARTS
 0
POLYLINE
 8
PARTS
 66
1
 10
0.0
 20
0.0
 30
0.0
 0
VERTEX
 8
PARTS
 10
  6.2000
 20
  5.5000
 30
0.0
 0
VERTEX
 8
PARTS
 10
  6.2000
 20
  5.1000
 30
0.0
 0
SEQEND
 8
PARTS
 0
POLYLINE
 8
PARTS
 66
1
 10
0.0
 20
0.0
 30
0.0
 0
VERTEX
 8
PARTS
 10
  6.2000
 20
  5.1000
 30
0.0
 0
VERTEX
 8
PARTS
 10
  6.6000
 20
  5.1000
 30
0.0
 0
SEQEND
 8
PARTS
 0
POLYLINE
 8
PARTS
 66
1
 10
0.0
 20
0.0
 30
0.0
 0
VERTEX
 8
PARTS
 10
  6.6000
 20
  5.1000
 30
0.0
 0
VERTEX
 8
PARTS
 10
  6.6000
 20
  5.5000
 30
0.0
 0
SEQEND
 8
PARTS
 0
TEXT
 8
PARTTEXT
 10
 11.1900
 20
  2.7186
 30
0.0
 40
  0.0514
 1
C8
 0
TEXT
 8
PARTTEXT
 10
 11.1900
 20
  2.6286
 30
0.0
 40
  0.0514
 1
.1uF
 0
LINE
 8
PARTS
 10
 11.0000
 20
  2.9000
 30
0.0
 11
 11.0000
 21
  2.8000
 31
0.0
 0
LINE
 8
PARTS
 10
 11.0000
 20
  2.6000
 30
0.0
 11
 11.0000
 21
  2.7000
 31
0.0
 0
POLYLINE
 8
PARTS
 66
1
 10
0.0
 20
0.0
 30
0.0
 0
VERTEX
 8
PARTS
 10
 10.9000
 20
  2.8000
 30
0.0
 0
VERTEX
 8
PARTS
 10
 11.1000
 20
  2.8000
 30
0.0
 0
SEQEND
 8
PARTS
 0
POLYLINE
 8
PARTS
 66
1
 10
0.0
 20
0.0
 30
0.0
 0
VERTEX
 8
PARTS
 10
 11.0000
 20
  2.7600
 30
0.0
 0
VERTEX
 8
PARTS
 10
 11.0000
 20
  2.7000
 30
0.0
 0
SEQEND
 8
PARTS
 0
POLYLINE
 8
PARTS
 66
1
 10
0.0
 20
0.0
 30
0.0
 0
VERTEX
 8
PARTS
 10
 11.1000
 20
  2.7300
 30
0.0
 42
  0.1654
 0
VERTEX
 8
PARTS
 10
 11.0000
 20
  2.7600
 30
0.0
 0
SEQEND
 8
PARTS
 0
POLYLINE
 8
PARTS
 66
1
 10
0.0
 20
0.0
 30
0.0
 0
VERTEX
 8
PARTS
 10
 11.0000
 20
  2.7600
 30
0.0
 42
  0.1654
 0
VERTEX
 8
PARTS
 10
 10.9000
 20
  2.7300
 30
0.0
 0
SEQEND
 8
PARTS
 0
TEXT
 8
PARTTEXT
 10
 12.0000
 20
  2.0186
 30
0.0
 40
  0.0514
 1
J3
 0
TEXT
 8
PARTTEXT
 10
 11.9000
 20
  1.6186
 30
0.0
 40
  0.0514
 1
CON4
 0
LINE
 8
PARTS
 10
 12.3000
 20
  1.9000
 30
0.0
 11
 12.2000
 21
  1.9000
 31
0.0
 0
TEXT
 8
PARTS
 10
 12.0700
 20
  1.8750
 30
0.0
 40
  0.0500
 1
1
 0
TEXT
 8
PARTS
 10
 12.2600
 20
  1.9300
 30
0.0
 40
  0.0500
 1

 0
LINE
 8
PARTS
 10
 12.3000
 20
  1.8000
 30
0.0
 11
 12.2000
 21
  1.8000
 31
0.0
 0
TEXT
 8
PARTS
 10
 12.0700
 20
  1.7750
 30
0.0
 40
  0.0500
 1
2
 0
TEXT
 8
PARTS
 10
 12.2600
 20
  1.8300
 30
0.0
 40
  0.0500
 1

 0
POLYLINE
 8
PARTS
 66
1
 70
1
 10
0.0
 20
0.0
 30
0.0
 0
VERTEX
 8
PARTS
 10
 12.2000
 20
  2.0000
 30
0.0
 0
VERTEX
 8
PARTS
 10
 12.0000
 20
  2.0000
 30
0.0
 0
VERTEX
 8
PARTS
 10
 12.0000
 20
  1.7000
 30
0.0
 0
VERTEX
 8
PARTS
 10
 12.2000
 20
  1.7000
 30
0.0
 0
SEQEND
 8
PARTS
 0
TEXT
 8
PARTTEXT
 10
 14.4500
 20
  3.5086
 30
0.0
 40
  0.0514
 1
J2
 0
TEXT
 8
PARTTEXT
 10
 14.3000
 20
  3.1186
 30
0.0
 40
  0.0514
 1
CON3
 0
LINE
 8
PARTS
 10
 14.7000
 20
  3.4000
 30
0.0
 11
 14.6000
 21
  3.4000
 31
0.0
 0
TEXT
 8
PARTS
 10
 14.4700
 20
  3.3750
 30
0.0
 40
  0.0500
 1
1
 0
TEXT
 8
PARTS
 10
 14.6600
 20
  3.4300
 30
0.0
 40
  0.0500
 1

 0
LINE
 8
PARTS
 10
 14.7000
 20
  3.3000
 30
0.0
 11
 14.6000
 21
  3.3000
 31
0.0
 0
TEXT
 8
PARTS
 10
 14.4700
 20
  3.2750
 30
0.0
 40
  0.0500
 1
2
 0
TEXT
 8
PARTS
 10
 14.6600
 20
  3.3300
 30
0.0
 40
  0.0500
 1

 0
POLYLINE
 8
PARTS
 66
1
 70
1
 10
0.0
 20
0.0
 30
0.0
 0
VERTEX
 8
PARTS
 10
 14.6000
 20
  3.5000
 30
0.0
 0
VERTEX
 8
PARTS
 10
 14.4000
 20
  3.5000
 30
0.0
 0
VERTEX
 8
PARTS
 10
 14.4000
 20
  3.2000
 30
0.0
 0
VERTEX
 8
PARTS
 10
 14.6000
 20
  3.2000
 30
0.0
 0
SEQEND
 8
PARTS
 0
TEXT
 8
PARTTEXT
 10
  0.6000
 20
  9.0186
 30
0.0
 40
  0.0514
 1
R2
 0
TEXT
 8
PARTTEXT
 10
  0.8000
 20
  9.0186
 30
0.0
 40
  0.0514
 1
330
 0
LINE
 8
PARTS
 10
  0.5000
 20
  8.9000
 30
0.0
 11
  0.6000
 21
  8.9000
 31
0.0
 0
LINE
 8
PARTS
 10
  1.0000
 20
  8.9000
 30
0.0
 11
  0.9000
 21
  8.9000
 31
0.0
 0
POLYLINE
 8
PARTS
 66
1
 10
0.0
 20
0.0
 30
0.0
 0
VERTEX
 8
PARTS
 10
  0.6000
 20
  8.9000
 30
0.0
 0
VERTEX
 8
PARTS
 10
  0.6300
 20
  8.9300
 30
0.0
 0
SEQEND
 8
PARTS
 0
POLYLINE
 8
PARTS
 66
1
 10
0.0
 20
0.0
 30
0.0
 0
VERTEX
 8
PARTS
 10
  0.6300
 20
  8.9300
 30
0.0
 0
VERTEX
 8
PARTS
 10
  0.6900
 20
  8.8700
 30
0.0
 0
SEQEND
 8
PARTS
 0
POLYLINE
 8
PARTS
 66
1
 10
0.0
 20
0.0
 30
0.0
 0
VERTEX
 8
PARTS
 10
  0.6900
 20
  8.8700
 30
0.0
 0
VERTEX
 8
PARTS
 10
  0.7500
 20
  8.9300
 30
0.0
 0
SEQEND
 8
PARTS
 0
POLYLINE
 8
PARTS
 66
1
 10
0.0
 20
0.0
 30
0.0
 0
VERTEX
 8
PARTS
 10
  0.7500
 20
  8.9300
 30
0.0
 0
VERTEX
 8
PARTS
 10
  0.8100
 20
  8.8700
 30
0.0
 0
SEQEND
 8
PARTS
 0
POLYLINE
 8
PARTS
 66
1
 10
0.0
 20
0.0
 30
0.0
 0
VERTEX
 8
PARTS
 10
  0.8100
 20
  8.8700
 30
0.0
 0
VERTEX
 8
PARTS
 10
  0.8700
 20
  8.9300
 30
0.0
 0
SEQEND
 8
PARTS
 0
POLYLINE
 8
PARTS
 66
1
 10
0.0
 20
0.0
 30
0.0
 0
VERTEX
 8
PARTS
 10
  0.8700
 20
  8.9300
 30
0.0
 0
VERTEX
 8
PARTS
 10
  0.9000
 20
  8.9000
 30
0.0
 0
SEQEND
 8
PARTS
 0
TEXT
 8
PARTTEXT
 10
  1.2000
 20
  5.1186
 30
0.0
 40
  0.0514
 1
U9
 0
TEXT
 8
PARTTEXT
 10
  1.4000
 20
  5.1186
 30
0.0
 40
  0.0514
 1
4N35
 0
LINE
 8
PARTS
 10
  1.0000
 20
  5.0000
 30
0.0
 11
  1.1000
 21
  5.0000
 31
0.0
 0
TEXT
 8
PARTS
 10
  1.0000
 20
  5.0300
 30
0.0
 40
  0.0500
 1
1
 0
LINE
 8
PARTS
 10
  1.8000
 20
  5.0000
 30
0.0
 11
  1.7000
 21
  5.0000
 31
0.0
 0
TEXT
 8
PARTS
 10
  1.7600
 20
  5.0300
 30
0.0
 40
  0.0500
 1
6
 0
LINE
 8
PARTS
 10
  1.0000
 20
  4.5000
 30
0.0
 11
  1.1000
 21
  4.5000
 31
0.0
 0
TEXT
 8
PARTS
 10
  1.0000
 20
  4.5300
 30
0.0
 40
  0.0500
 1
2
 0
LINE
 8
PARTS
 10
  1.8000
 20
  4.8000
 30
0.0
 11
  1.7000
 21
  4.8000
 31
0.0
 0
TEXT
 8
PARTS
 10
  1.7600
 20
  4.8300
 30
0.0
 40
  0.0500
 1
5
 0
LINE
 8
PARTS
 10
  1.8000
 20
  4.6000
 30
0.0
 11
  1.7000
 21
  4.6000
 31
0.0
 0
TEXT
 8
PARTS
 10
  1.7600
 20
  4.6300
 30
0.0
 40
  0.0500
 1
4
 0
POLYLINE
 8
PARTS
 66
1
 70
1
 10
0.0
 20
0.0
 30
0.0
 0
VERTEX
 8
PARTS
 10
  1.6700
 20
  4.6300
 30
0.0
 0
VERTEX
 8
PARTS
 10
  1.7000
 20
  4.6600
 30
0.0
 0
VERTEX
 8
PARTS
 10
  1.7000
 20
  4.6000
 30
0.0
 0
VERTEX
 8
PARTS
 10
  1.6400
 20
  4.6000
 30
0.0
 0
VERTEX
 8
PARTS
 10
  1.6700
 20
  4.6300
 30
0.0
 0
SEQEND
 8
PARTS
 0
POLYLINE
 8
PARTS
 66
1
 70
1
 10
0.0
 20
0.0
 30
0.0
 0
VERTEX
 8
PARTS
 10
  1.1500
 20
  4.8000
 30
0.0
 0
VERTEX
 8
PARTS
 10
  1.2500
 20
  4.8000
 30
0.0
 0
VERTEX
 8
PARTS
 10
  1.2000
 20
  4.7000
 30
0.0
 0
VERTEX
 8
PARTS
 10
  1.1500
 20
  4.8000
 30
0.0
 0
SEQEND
 8
PARTS
 0
POLYLINE
 8
PARTS
 66
1
 10
0.0
 20
0.0
 30
0.0
 0
VERTEX
 8
PARTS
 10
  1.1000
 20
  5.0000
 30
0.0
 0
VERTEX
 8
PARTS
 10
  1.2000
 20
  5.0000
 30
0.0
 0
SEQEND
 8
PARTS
 0
POLYLINE
 8
PARTS
 66
1
 10
0.0
 20
0.0
 30
0.0
 0
VERTEX
 8
PARTS
 10
  1.2000
 20
  5.0000
 30
0.0
 0
VERTEX
 8
PARTS
 10
  1.2000
 20
  4.8000
 30
0.0
 0
SEQEND
 8
PARTS
 0
POLYLINE
 8
PARTS
 66
1
 10
0.0
 20
0.0
 30
0.0
 0
VERTEX
 8
PARTS
 10
  1.1500
 20
  4.7000
 30
0.0
 0
VERTEX
 8
PARTS
 10
  1.2500
 20
  4.7000
 30
0.0
 0
SEQEND
 8
PARTS
 0
POLYLINE
 8
PARTS
 66
1
 10
0.0
 20
0.0
 30
0.0
 0
VERTEX
 8
PARTS
 10
  1.2000
 20
  4.7000
 30
0.0
 0
VERTEX
 8
PARTS
 10
  1.2000
 20
  4.5000
 30
0.0
 0
SEQEND
 8
PARTS
 0
POLYLINE
 8
PARTS
 66
1
 10
0.0
 20
0.0
 30
0.0
 0
VERTEX
 8
PARTS
 10
  1.2000
 20
  4.5000
 30
0.0
 0
VERTEX
 8
PARTS
 10
  1.1000
 20
  4.5000
 30
0.0
 0
SEQEND
 8
PARTS
 0
POLYLINE
 8
PARTS
 66
1
 10
0.0
 20
0.0
 30
0.0
 0
VERTEX
 8
PARTS
 10
  1.3900
 20
  4.8000
 30
0.0
 0
VERTEX
 8
PARTS
 10
  1.4300
 20
  4.7600
 30
0.0
 0
SEQEND
 8
PARTS
 0
POLYLINE
 8
PARTS
 66
1
 10
0.0
 20
0.0
 30
0.0
 0
VERTEX
 8
PARTS
 10
  1.4300
 20
  4.7600
 30
0.0
 0
VERTEX
 8
PARTS
 10
  1.4300
 20
  4.7900
 30
0.0
 0
SEQEND
 8
PARTS
 0
POLYLINE
 8
PARTS
 66
1
 10
0.0
 20
0.0
 30
0.0
 0
VERTEX
 8
PARTS
 10
  1.4300
 20
  4.7900
 30
0.0
 0
VERTEX
 8
PARTS
 10
  1.4700
 20
  4.7500
 30
0.0
 0
SEQEND
 8
PARTS
 0
POLYLINE
 8
PARTS
 66
1
 10
0.0
 20
0.0
 30
0.0
 0
VERTEX
 8
PARTS
 10
  1.4700
 20
  4.7500
 30
0.0
 0
VERTEX
 8
PARTS
 10
  1.4900
 20
  4.7700
 30
0.0
 0
SEQEND
 8
PARTS
 0
POLYLINE
 8
PARTS
 66
1
 10
0.0
 20
0.0
 30
0.0
 0
VERTEX
 8
PARTS
 10
  1.4900
 20
  4.7700
 30
0.0
 0
VERTEX
 8
PARTS
 10
  1.4900
 20
  4.7300
 30
0.0
 0
SEQEND
 8
PARTS
 0
POLYLINE
 8
PARTS
 66
1
 10
0.0
 20
0.0
 30
0.0
 0
VERTEX
 8
PARTS
 10
  1.4900
 20
  4.7300
 30
0.0
 0
VERTEX
 8
PARTS
 10
  1.4500
 20
  4.7300
 30
0.0
 0
SEQEND
 8
PARTS
 0
POLYLINE
 8
PARTS
 66
1
 10
0.0
 20
0.0
 30
0.0
 0
VERTEX
 8
PARTS
 10
  1.4500
 20
  4.7300
 30
0.0
 0
VERTEX
 8
PARTS
 10
  1.4700
 20
  4.7500
 30
0.0
 0
SEQEND
 8
PARTS
 0
POLYLINE
 8
PARTS
 66
1
 10
0.0
 20
0.0
 30
0.0
 0
VERTEX
 8
PARTS
 10
  1.3900
 20
  4.7200
 30
0.0
 0
VERTEX
 8
PARTS
 10
  1.4300
 20
  4.6800
 30
0.0
 0
SEQEND
 8
PARTS
 0
POLYLINE
 8
PARTS
 66
1
 10
0.0
 20
0.0
 30
0.0
 0
VERTEX
 8
PARTS
 10
  1.4300
 20
  4.6800
 30
0.0
 0
VERTEX
 8
PARTS
 10
  1.4300
 20
  4.7100
 30
0.0
 0
SEQEND
 8
PARTS
 0
POLYLINE
 8
PARTS
 66
1
 10
0.0
 20
0.0
 30
0.0
 0
VERTEX
 8
PARTS
 10
  1.4300
 20
  4.7100
 30
0.0
 0
VERTEX
 8
PARTS
 10
  1.4700
 20
  4.6700
 30
0.0
 0
SEQEND
 8
PARTS
 0
POLYLINE
 8
PARTS
 66
1
 10
0.0
 20
0.0
 30
0.0
 0
VERTEX
 8
PARTS
 10
  1.4700
 20
  4.6700
 30
0.0
 0
VERTEX
 8
PARTS
 10
  1.4900
 20
  4.6900
 30
0.0
 0
SEQEND
 8
PARTS
 0
POLYLINE
 8
PARTS
 66
1
 10
0.0
 20
0.0
 30
0.0
 0
VERTEX
 8
PARTS
 10
  1.4900
 20
  4.6900
 30
0.0
 0
VERTEX
 8
PARTS
 10
  1.4900
 20
  4.6500
 30
0.0
 0
SEQEND
 8
PARTS
 0
POLYLINE
 8
PARTS
 66
1
 10
0.0
 20
0.0
 30
0.0
 0
VERTEX
 8
PARTS
 10
  1.4900
 20
  4.6500
 30
0.0
 0
VERTEX
 8
PARTS
 10
  1.4500
 20
  4.6500
 30
0.0
 0
SEQEND
 8
PARTS
 0
POLYLINE
 8
PARTS
 66
1
 10
0.0
 20
0.0
 30
0.0
 0
VERTEX
 8
PARTS
 10
  1.4500
 20
  4.6500
 30
0.0
 0
VERTEX
 8
PARTS
 10
  1.4700
 20
  4.6700
 30
0.0
 0
SEQEND
 8
PARTS
 0
POLYLINE
 8
PARTS
 66
1
 10
0.0
 20
0.0
 30
0.0
 0
VERTEX
 8
PARTS
 10
  1.6000
 20
  4.7000
 30
0.0
 0
VERTEX
 8
PARTS
 10
  1.5500
 20
  4.7000
 30
0.0
 0
SEQEND
 8
PARTS
 0
POLYLINE
 8
PARTS
 66
1
 10
0.0
 20
0.0
 30
0.0
 0
VERTEX
 8
PARTS
 10
  1.5500
 20
  4.7000
 30
0.0
 0
VERTEX
 8
PARTS
 10
  1.5500
 20
  5.0000
 30
0.0
 0
SEQEND
 8
PARTS
 0
POLYLINE
 8
PARTS
 66
1
 10
0.0
 20
0.0
 30
0.0
 0
VERTEX
 8
PARTS
 10
  1.5500
 20
  5.0000
 30
0.0
 0
VERTEX
 8
PARTS
 10
  1.7000
 20
  5.0000
 30
0.0
 0
SEQEND
 8
PARTS
 0
POLYLINE
 8
PARTS
 66
1
 10
0.0
 20
0.0
 30
0.0
 0
VERTEX
 8
PARTS
 10
  1.7000
 20
  4.8000
 30
0.0
 0
VERTEX
 8
PARTS
 10
  1.6000
 20
  4.7000
 30
0.0
 0
SEQEND
 8
PARTS
 0
POLYLINE
 8
PARTS
 66
1
 10
0.0
 20
0.0
 30
0.0
 0
VERTEX
 8
PARTS
 10
  1.6000
 20
  4.7000
 30
0.0
 0
VERTEX
 8
PARTS
 10
  1.6700
 20
  4.6300
 30
0.0
 0
SEQEND
 8
PARTS
 0
POLYLINE
 8
PARTS
 66
1
 10
0.0
 20
0.0
 30
0.0
 0
VERTEX
 8
PARTS
 10
  1.6000
 20
  4.6000
 30
0.0
 0
VERTEX
 8
PARTS
 10
  1.6000
 20
  4.8000
 30
0.0
 0
SEQEND
 8
PARTS
 0
TEXT
 8
PARTTEXT
 10
  0.6000
 20
  4.6186
 30
0.0
 40
  0.0514
 1
R12
 0
TEXT
 8
PARTTEXT
 10
  0.8000
 20
  4.6186
 30
0.0
 40
  0.0514
 1
330
 0
LINE
 8
PARTS
 10
  0.5000
 20
  4.5000
 30
0.0
 11
  0.6000
 21
  4.5000
 31
0.0
 0
LINE
 8
PARTS
 10
  1.0000
 20
  4.5000
 30
0.0
 11
  0.9000
 21
  4.5000
 31
0.0
 0
POLYLINE
 8
PARTS
 66
1
 10
0.0
 20
0.0
 30
0.0
 0
VERTEX
 8
PARTS
 10
  0.6000
 20
  4.5000
 30
0.0
 0
VERTEX
 8
PARTS
 10
  0.6300
 20
  4.5300
 30
0.0
 0
SEQEND
 8
PARTS
 0
POLYLINE
 8
PARTS
 66
1
 10
0.0
 20
0.0
 30
0.0
 0
VERTEX
 8
PARTS
 10
  0.6300
 20
  4.5300
 30
0.0
 0
VERTEX
 8
PARTS
 10
  0.6900
 20
  4.4700
 30
0.0
 0
SEQEND
 8
PARTS
 0
POLYLINE
 8
PARTS
 66
1
 10
0.0
 20
0.0
 30
0.0
 0
VERTEX
 8
PARTS
 10
  0.6900
 20
  4.4700
 30
0.0
 0
VERTEX
 8
PARTS
 10
  0.7500
 20
  4.5300
 30
0.0
 0
SEQEND
 8
PARTS
 0
POLYLINE
 8
PARTS
 66
1
 10
0.0
 20
0.0
 30
0.0
 0
VERTEX
 8
PARTS
 10
  0.7500
 20
  4.5300
 30
0.0
 0
VERTEX
 8
PARTS
 10
  0.8100
 20
  4.4700
 30
0.0
 0
SEQEND
 8
PARTS
 0
POLYLINE
 8
PARTS
 66
1
 10
0.0
 20
0.0
 30
0.0
 0
VERTEX
 8
PARTS
 10
  0.8100
 20
  4.4700
 30
0.0
 0
VERTEX
 8
PARTS
 10
  0.8700
 20
  4.5300
 30
0.0
 0
SEQEND
 8
PARTS
 0
POLYLINE
 8
PARTS
 66
1
 10
0.0
 20
0.0
 30
0.0
 0
VERTEX
 8
PARTS
 10
  0.8700
 20
  4.5300
 30
0.0
 0
VERTEX
 8
PARTS
 10
  0.9000
 20
  4.5000
 30
0.0
 0
SEQEND
 8
PARTS
 0
TEXT
 8
PARTTEXT
 10
  1.9000
 20
  4.7186
 30
0.0
 40
  0.0514
 1
R11
 0
TEXT
 8
PARTTEXT
 10
  2.1000
 20
  4.7186
 30
0.0
 40
  0.0514
 1
1k
 0
LINE
 8
PARTS
 10
  1.8000
 20
  4.6000
 30
0.0
 11
  1.9000
 21
  4.6000
 31
0.0
 0
LINE
 8
PARTS
 10
  2.3000
 20
  4.6000
 30
0.0
 11
  2.2000
 21
  4.6000
 31
0.0
 0
POLYLINE
 8
PARTS
 66
1
 10
0.0
 20
0.0
 30
0.0
 0
VERTEX
 8
PARTS
 10
  1.9000
 20
  4.6000
 30
0.0
 0
VERTEX
 8
PARTS
 10
  1.9300
 20
  4.6300
 30
0.0
 0
SEQEND
 8
PARTS
 0
POLYLINE
 8
PARTS
 66
1
 10
0.0
 20
0.0
 30
0.0
 0
VERTEX
 8
PARTS
 10
  1.9300
 20
  4.6300
 30
0.0
 0
VERTEX
 8
PARTS
 10
  1.9900
 20
  4.5700
 30
0.0
 0
SEQEND
 8
PARTS
 0
POLYLINE
 8
PARTS
 66
1
 10
0.0
 20
0.0
 30
0.0
 0
VERTEX
 8
PARTS
 10
  1.9900
 20
  4.5700
 30
0.0
 0
VERTEX
 8
PARTS
 10
  2.0500
 20
  4.6300
 30
0.0
 0
SEQEND
 8
PARTS
 0
POLYLINE
 8
PARTS
 66
1
 10
0.0
 20
0.0
 30
0.0
 0
VERTEX
 8
PARTS
 10
  2.0500
 20
  4.6300
 30
0.0
 0
VERTEX
 8
PARTS
 10
  2.1100
 20
  4.5700
 30
0.0
 0
SEQEND
 8
PARTS
 0
POLYLINE
 8
PARTS
 66
1
 10
0.0
 20
0.0
 30
0.0
 0
VERTEX
 8
PARTS
 10
  2.1100
 20
  4.5700
 30
0.0
 0
VERTEX
 8
PARTS
 10
  2.1700
 20
  4.6300
 30
0.0
 0
SEQEND
 8
PARTS
 0
POLYLINE
 8
PARTS
 66
1
 10
0.0
 20
0.0
 30
0.0
 0
VERTEX
 8
PARTS
 10
  2.1700
 20
  4.6300
 30
0.0
 0
VERTEX
 8
PARTS
 10
  2.2000
 20
  4.6000
 30
0.0
 0
SEQEND
 8
PARTS
 0
TEXT
 8
PARTTEXT
 10
  8.4000
 20
  8.7186
 30
0.0
 40
  0.0514
 1
C1
 0
TEXT
 8
PARTTEXT
 10
  8.3000
 20
  8.6186
 30
0.0
 40
  0.0514
 1
.1uF
 0
LINE
 8
PARTS
 10
  8.6000
 20
  8.9000
 30
0.0
 11
  8.6000
 21
  8.8000
 31
0.0
 0
LINE
 8
PARTS
 10
  8.6000
 20
  8.6000
 30
0.0
 11
  8.6000
 21
  8.7000
 31
0.0
 0
POLYLINE
 8
PARTS
 66
1
 10
0.0
 20
0.0
 30
0.0
 0
VERTEX
 8
PARTS
 10
  8.5000
 20
  8.8000
 30
0.0
 0
VERTEX
 8
PARTS
 10
  8.7000
 20
  8.8000
 30
0.0
 0
SEQEND
 8
PARTS
 0
POLYLINE
 8
PARTS
 66
1
 10
0.0
 20
0.0
 30
0.0
 0
VERTEX
 8
PARTS
 10
  8.6000
 20
  8.7600
 30
0.0
 0
VERTEX
 8
PARTS
 10
  8.6000
 20
  8.7000
 30
0.0
 0
SEQEND
 8
PARTS
 0
POLYLINE
 8
PARTS
 66
1
 10
0.0
 20
0.0
 30
0.0
 0
VERTEX
 8
PARTS
 10
  8.7000
 20
  8.7300
 30
0.0
 42
  0.1654
 0
VERTEX
 8
PARTS
 10
  8.6000
 20
  8.7600
 30
0.0
 0
SEQEND
 8
PARTS
 0
POLYLINE
 8
PARTS
 66
1
 10
0.0
 20
0.0
 30
0.0
 0
VERTEX
 8
PARTS
 10
  8.6000
 20
  8.7600
 30
0.0
 42
  0.1654
 0
VERTEX
 8
PARTS
 10
  8.5000
 20
  8.7300
 30
0.0
 0
SEQEND
 8
PARTS
 0
TEXT
 8
PARTTEXT
 10
  1.2000
 20
  4.3186
 30
0.0
 40
  0.0514
 1
U11
 0
TEXT
 8
PARTTEXT
 10
  1.4000
 20
  4.3186
 30
0.0
 40
  0.0514
 1
4N35
 0
LINE
 8
PARTS
 10
  1.0000
 20
  4.2000
 30
0.0
 11
  1.1000
 21
  4.2000
 31
0.0
 0
TEXT
 8
PARTS
 10
  1.0000
 20
  4.2300
 30
0.0
 40
  0.0500
 1
1
 0
LINE
 8
PARTS
 10
  1.8000
 20
  4.2000
 30
0.0
 11
  1.7000
 21
  4.2000
 31
0.0
 0
TEXT
 8
PARTS
 10
  1.7600
 20
  4.2300
 30
0.0
 40
  0.0500
 1
6
 0
LINE
 8
PARTS
 10
  1.0000
 20
  3.7000
 30
0.0
 11
  1.1000
 21
  3.7000
 31
0.0
 0
TEXT
 8
PARTS
 10
  1.0000
 20
  3.7300
 30
0.0
 40
  0.0500
 1
2
 0
LINE
 8
PARTS
 10
  1.8000
 20
  4.0000
 30
0.0
 11
  1.7000
 21
  4.0000
 31
0.0
 0
TEXT
 8
PARTS
 10
  1.7600
 20
  4.0300
 30
0.0
 40
  0.0500
 1
5
 0
LINE
 8
PARTS
 10
  1.8000
 20
  3.8000
 30
0.0
 11
  1.7000
 21
  3.8000
 31
0.0
 0
TEXT
 8
PARTS
 10
  1.7600
 20
  3.8300
 30
0.0
 40
  0.0500
 1
4
 0
POLYLINE
 8
PARTS
 66
1
 70
1
 10
0.0
 20
0.0
 30
0.0
 0
VERTEX
 8
PARTS
 10
  1.6700
 20
  3.8300
 30
0.0
 0
VERTEX
 8
PARTS
 10
  1.7000
 20
  3.8600
 30
0.0
 0
VERTEX
 8
PARTS
 10
  1.7000
 20
  3.8000
 30
0.0
 0
VERTEX
 8
PARTS
 10
  1.6400
 20
  3.8000
 30
0.0
 0
VERTEX
 8
PARTS
 10
  1.6700
 20
  3.8300
 30
0.0
 0
SEQEND
 8
PARTS
 0
POLYLINE
 8
PARTS
 66
1
 70
1
 10
0.0
 20
0.0
 30
0.0
 0
VERTEX
 8
PARTS
 10
  1.1500
 20
  4.0000
 30
0.0
 0
VERTEX
 8
PARTS
 10
  1.2500
 20
  4.0000
 30
0.0
 0
VERTEX
 8
PARTS
 10
  1.2000
 20
  3.9000
 30
0.0
 0
VERTEX
 8
PARTS
 10
  1.1500
 20
  4.0000
 30
0.0
 0
SEQEND
 8
PARTS
 0
POLYLINE
 8
PARTS
 66
1
 10
0.0
 20
0.0
 30
0.0
 0
VERTEX
 8
PARTS
 10
  1.1000
 20
  4.2000
 30
0.0
 0
VERTEX
 8
PARTS
 10
  1.2000
 20
  4.2000
 30
0.0
 0
SEQEND
 8
PARTS
 0
POLYLINE
 8
PARTS
 66
1
 10
0.0
 20
0.0
 30
0.0
 0
VERTEX
 8
PARTS
 10
  1.2000
 20
  4.2000
 30
0.0
 0
VERTEX
 8
PARTS
 10
  1.2000
 20
  4.0000
 30
0.0
 0
SEQEND
 8
PARTS
 0
POLYLINE
 8
PARTS
 66
1
 10
0.0
 20
0.0
 30
0.0
 0
VERTEX
 8
PARTS
 10
  1.1500
 20
  3.9000
 30
0.0
 0
VERTEX
 8
PARTS
 10
  1.2500
 20
  3.9000
 30
0.0
 0
SEQEND
 8
PARTS
 0
POLYLINE
 8
PARTS
 66
1
 10
0.0
 20
0.0
 30
0.0
 0
VERTEX
 8
PARTS
 10
  1.2000
 20
  3.9000
 30
0.0
 0
VERTEX
 8
PARTS
 10
  1.2000
 20
  3.7000
 30
0.0
 0
SEQEND
 8
PARTS
 0
POLYLINE
 8
PARTS
 66
1
 10
0.0
 20
0.0
 30
0.0
 0
VERTEX
 8
PARTS
 10
  1.2000
 20
  3.7000
 30
0.0
 0
VERTEX
 8
PARTS
 10
  1.1000
 20
  3.7000
 30
0.0
 0
SEQEND
 8
PARTS
 0
POLYLINE
 8
PARTS
 66
1
 10
0.0
 20
0.0
 30
0.0
 0
VERTEX
 8
PARTS
 10
  1.3900
 20
  4.0000
 30
0.0
 0
VERTEX
 8
PARTS
 10
  1.4300
 20
  3.9600
 30
0.0
 0
SEQEND
 8
PARTS
 0
POLYLINE
 8
PARTS
 66
1
 10
0.0
 20
0.0
 30
0.0
 0
VERTEX
 8
PARTS
 10
  1.4300
 20
  3.9600
 30
0.0
 0
VERTEX
 8
PARTS
 10
  1.4300
 20
  3.9900
 30
0.0
 0
SEQEND
 8
PARTS
 0
POLYLINE
 8
PARTS
 66
1
 10
0.0
 20
0.0
 30
0.0
 0
VERTEX
 8
PARTS
 10
  1.4300
 20
  3.9900
 30
0.0
 0
VERTEX
 8
PARTS
 10
  1.4700
 20
  3.9500
 30
0.0
 0
SEQEND
 8
PARTS
 0
POLYLINE
 8
PARTS
 66
1
 10
0.0
 20
0.0
 30
0.0
 0
VERTEX
 8
PARTS
 10
  1.4700
 20
  3.9500
 30
0.0
 0
VERTEX
 8
PARTS
 10
  1.4900
 20
  3.9700
 30
0.0
 0
SEQEND
 8
PARTS
 0
POLYLINE
 8
PARTS
 66
1
 10
0.0
 20
0.0
 30
0.0
 0
VERTEX
 8
PARTS
 10
  1.4900
 20
  3.9700
 30
0.0
 0
VERTEX
 8
PARTS
 10
  1.4900
 20
  3.9300
 30
0.0
 0
SEQEND
 8
PARTS
 0
POLYLINE
 8
PARTS
 66
1
 10
0.0
 20
0.0
 30
0.0
 0
VERTEX
 8
PARTS
 10
  1.4900
 20
  3.9300
 30
0.0
 0
VERTEX
 8
PARTS
 10
  1.4500
 20
  3.9300
 30
0.0
 0
SEQEND
 8
PARTS
 0
POLYLINE
 8
PARTS
 66
1
 10
0.0
 20
0.0
 30
0.0
 0
VERTEX
 8
PARTS
 10
  1.4500
 20
  3.9300
 30
0.0
 0
VERTEX
 8
PARTS
 10
  1.4700
 20
  3.9500
 30
0.0
 0
SEQEND
 8
PARTS
 0
POLYLINE
 8
PARTS
 66
1
 10
0.0
 20
0.0
 30
0.0
 0
VERTEX
 8
PARTS
 10
  1.3900
 20
  3.9200
 30
0.0
 0
VERTEX
 8
PARTS
 10
  1.4300
 20
  3.8800
 30
0.0
 0
SEQEND
 8
PARTS
 0
POLYLINE
 8
PARTS
 66
1
 10
0.0
 20
0.0
 30
0.0
 0
VERTEX
 8
PARTS
 10
  1.4300
 20
  3.8800
 30
0.0
 0
VERTEX
 8
PARTS
 10
  1.4300
 20
  3.9100
 30
0.0
 0
SEQEND
 8
PARTS
 0
POLYLINE
 8
PARTS
 66
1
 10
0.0
 20
0.0
 30
0.0
 0
VERTEX
 8
PARTS
 10
  1.4300
 20
  3.9100
 30
0.0
 0
VERTEX
 8
PARTS
 10
  1.4700
 20
  3.8700
 30
0.0
 0
SEQEND
 8
PARTS
 0
POLYLINE
 8
PARTS
 66
1
 10
0.0
 20
0.0
 30
0.0
 0
VERTEX
 8
PARTS
 10
  1.4700
 20
  3.8700
 30
0.0
 0
VERTEX
 8
PARTS
 10
  1.4900
 20
  3.8900
 30
0.0
 0
SEQEND
 8
PARTS
 0
POLYLINE
 8
PARTS
 66
1
 10
0.0
 20
0.0
 30
0.0
 0
VERTEX
 8
PARTS
 10
  1.4900
 20
  3.8900
 30
0.0
 0
VERTEX
 8
PARTS
 10
  1.4900
 20
  3.8500
 30
0.0
 0
SEQEND
 8
PARTS
 0
POLYLINE
 8
PARTS
 66
1
 10
0.0
 20
0.0
 30
0.0
 0
VERTEX
 8
PARTS
 10
  1.4900
 20
  3.8500
 30
0.0
 0
VERTEX
 8
PARTS
 10
  1.4500
 20
  3.8500
 30
0.0
 0
SEQEND
 8
PARTS
 0
POLYLINE
 8
PARTS
 66
1
 10
0.0
 20
0.0
 30
0.0
 0
VERTEX
 8
PARTS
 10
  1.4500
 20
  3.8500
 30
0.0
 0
VERTEX
 8
PARTS
 10
  1.4700
 20
  3.8700
 30
0.0
 0
SEQEND
 8
PARTS
 0
POLYLINE
 8
PARTS
 66
1
 10
0.0
 20
0.0
 30
0.0
 0
VERTEX
 8
PARTS
 10
  1.6000
 20
  3.9000
 30
0.0
 0
VERTEX
 8
PARTS
 10
  1.5500
 20
  3.9000
 30
0.0
 0
SEQEND
 8
PARTS
 0
POLYLINE
 8
PARTS
 66
1
 10
0.0
 20
0.0
 30
0.0
 0
VERTEX
 8
PARTS
 10
  1.5500
 20
  3.9000
 30
0.0
 0
VERTEX
 8
PARTS
 10
  1.5500
 20
  4.2000
 30
0.0
 0
SEQEND
 8
PARTS
 0
POLYLINE
 8
PARTS
 66
1
 10
0.0
 20
0.0
 30
0.0
 0
VERTEX
 8
PARTS
 10
  1.5500
 20
  4.2000
 30
0.0
 0
VERTEX
 8
PARTS
 10
  1.7000
 20
  4.2000
 30
0.0
 0
SEQEND
 8
PARTS
 0
POLYLINE
 8
PARTS
 66
1
 10
0.0
 20
0.0
 30
0.0
 0
VERTEX
 8
PARTS
 10
  1.7000
 20
  4.0000
 30
0.0
 0
VERTEX
 8
PARTS
 10
  1.6000
 20
  3.9000
 30
0.0
 0
SEQEND
 8
PARTS
 0
POLYLINE
 8
PARTS
 66
1
 10
0.0
 20
0.0
 30
0.0
 0
VERTEX
 8
PARTS
 10
  1.6000
 20
  3.9000
 30
0.0
 0
VERTEX
 8
PARTS
 10
  1.6700
 20
  3.8300
 30
0.0
 0
SEQEND
 8
PARTS
 0
POLYLINE
 8
PARTS
 66
1
 10
0.0
 20
0.0
 30
0.0
 0
VERTEX
 8
PARTS
 10
  1.6000
 20
  3.8000
 30
0.0
 0
VERTEX
 8
PARTS
 10
  1.6000
 20
  4.0000
 30
0.0
 0
SEQEND
 8
PARTS
 0
TEXT
 8
PARTTEXT
 10
  0.6000
 20
  3.8186
 30
0.0
 40
  0.0514
 1
R14
 0
TEXT
 8
PARTTEXT
 10
  0.8000
 20
  3.8186
 30
0.0
 40
  0.0514
 1
330
 0
LINE
 8
PARTS
 10
  0.5000
 20
  3.7000
 30
0.0
 11
  0.6000
 21
  3.7000
 31
0.0
 0
LINE
 8
PARTS
 10
  1.0000
 20
  3.7000
 30
0.0
 11
  0.9000
 21
  3.7000
 31
0.0
 0
POLYLINE
 8
PARTS
 66
1
 10
0.0
 20
0.0
 30
0.0
 0
VERTEX
 8
PARTS
 10
  0.6000
 20
  3.7000
 30
0.0
 0
VERTEX
 8
PARTS
 10
  0.6300
 20
  3.7300
 30
0.0
 0
SEQEND
 8
PARTS
 0
POLYLINE
 8
PARTS
 66
1
 10
0.0
 20
0.0
 30
0.0
 0
VERTEX
 8
PARTS
 10
  0.6300
 20
  3.7300
 30
0.0
 0
VERTEX
 8
PARTS
 10
  0.6900
 20
  3.6700
 30
0.0
 0
SEQEND
 8
PARTS
 0
POLYLINE
 8
PARTS
 66
1
 10
0.0
 20
0.0
 30
0.0
 0
VERTEX
 8
PARTS
 10
  0.6900
 20
  3.6700
 30
0.0
 0
VERTEX
 8
PARTS
 10
  0.7500
 20
  3.7300
 30
0.0
 0
SEQEND
 8
PARTS
 0
POLYLINE
 8
PARTS
 66
1
 10
0.0
 20
0.0
 30
0.0
 0
VERTEX
 8
PARTS
 10
  0.7500
 20
  3.7300
 30
0.0
 0
VERTEX
 8
PARTS
 10
  0.8100
 20
  3.6700
 30
0.0
 0
SEQEND
 8
PARTS
 0
POLYLINE
 8
PARTS
 66
1
 10
0.0
 20
0.0
 30
0.0
 0
VERTEX
 8
PARTS
 10
  0.8100
 20
  3.6700
 30
0.0
 0
VERTEX
 8
PARTS
 10
  0.8700
 20
  3.7300
 30
0.0
 0
SEQEND
 8
PARTS
 0
POLYLINE
 8
PARTS
 66
1
 10
0.0
 20
0.0
 30
0.0
 0
VERTEX
 8
PARTS
 10
  0.8700
 20
  3.7300
 30
0.0
 0
VERTEX
 8
PARTS
 10
  0.9000
 20
  3.7000
 30
0.0
 0
SEQEND
 8
PARTS
 0
TEXT
 8
PARTTEXT
 10
 11.1900
 20
  8.7186
 30
0.0
 40
  0.0514
 1
C2
 0
TEXT
 8
PARTTEXT
 10
 11.1900
 20
  8.6286
 30
0.0
 40
  0.0514
 1
.1uF
 0
LINE
 8
PARTS
 10
 11.0000
 20
  8.9000
 30
0.0
 11
 11.0000
 21
  8.8000
 31
0.0
 0
LINE
 8
PARTS
 10
 11.0000
 20
  8.6000
 30
0.0
 11
 11.0000
 21
  8.7000
 31
0.0
 0
POLYLINE
 8
PARTS
 66
1
 10
0.0
 20
0.0
 30
0.0
 0
VERTEX
 8
PARTS
 10
 10.9000
 20
  8.8000
 30
0.0
 0
VERTEX
 8
PARTS
 10
 11.1000
 20
  8.8000
 30
0.0
 0
SEQEND
 8
PARTS
 0
POLYLINE
 8
PARTS
 66
1
 10
0.0
 20
0.0
 30
0.0
 0
VERTEX
 8
PARTS
 10
 11.0000
 20
  8.7600
 30
0.0
 0
VERTEX
 8
PARTS
 10
 11.0000
 20
  8.7000
 30
0.0
 0
SEQEND
 8
PARTS
 0
POLYLINE
 8
PARTS
 66
1
 10
0.0
 20
0.0
 30
0.0
 0
VERTEX
 8
PARTS
 10
 11.1000
 20
  8.7300
 30
0.0
 42
  0.1654
 0
VERTEX
 8
PARTS
 10
 11.0000
 20
  8.7600
 30
0.0
 0
SEQEND
 8
PARTS
 0
POLYLINE
 8
PARTS
 66
1
 10
0.0
 20
0.0
 30
0.0
 0
VERTEX
 8
PARTS
 10
 11.0000
 20
  8.7600
 30
0.0
 42
  0.1654
 0
VERTEX
 8
PARTS
 10
 10.9000
 20
  8.7300
 30
0.0
 0
SEQEND
 8
PARTS
 0
TEXT
 8
PARTTEXT
 10
 11.6500
 20
  3.2186
 30
0.0
 40
  0.0514
 1
C6
 0
TEXT
 8
PARTTEXT
 10
 11.6500
 20
  3.0886
 30
0.0
 40
  0.0514
 1
.1uF
 0
LINE
 8
PARTS
 10
 12.0000
 20
  3.4000
 30
0.0
 11
 12.0000
 21
  3.3000
 31
0.0
 0
TEXT
 8
PARTS
 10
 11.9700
 20
  3.3600
 30
0.0
 40
  0.0500
 50
 90.0000
 1

 0
LINE
 8
PARTS
 10
 12.0000
 20
  3.1000
 30
0.0
 11
 12.0000
 21
  3.2000
 31
0.0
 0
TEXT
 8
PARTS
 10
 11.9700
 20
  3.0800
 30
0.0
 40
  0.0500
 50
 90.0000
 1

 0
POLYLINE
 8
PARTS
 66
1
 10
0.0
 20
0.0
 30
0.0
 0
VERTEX
 8
PARTS
 10
 11.9000
 20
  3.3000
 30
0.0
 0
VERTEX
 8
PARTS
 10
 12.1000
 20
  3.3000
 30
0.0
 0
SEQEND
 8
PARTS
 0
POLYLINE
 8
PARTS
 66
1
 10
0.0
 20
0.0
 30
0.0
 0
VERTEX
 8
PARTS
 10
 12.0000
 20
  3.2600
 30
0.0
 0
VERTEX
 8
PARTS
 10
 12.0000
 20
  3.2000
 30
0.0
 0
SEQEND
 8
PARTS
 0
POLYLINE
 8
PARTS
 66
1
 10
0.0
 20
0.0
 30
0.0
 0
VERTEX
 8
PARTS
 10
 12.1000
 20
  3.2300
 30
0.0
 42
  0.1654
 0
VERTEX
 8
PARTS
 10
 12.0000
 20
  3.2600
 30
0.0
 0
SEQEND
 8
PARTS
 0
POLYLINE
 8
PARTS
 66
1
 10
0.0
 20
0.0
 30
0.0
 0
VERTEX
 8
PARTS
 10
 12.0000
 20
  3.2600
 30
0.0
 42
  0.1654
 0
VERTEX
 8
PARTS
 10
 11.9000
 20
  3.2300
 30
0.0
 0
SEQEND
 8
PARTS
 0
TEXT
 8
PARTTEXT
 10
  1.9000
 20
  3.9186
 30
0.0
 40
  0.0514
 1
R13
 0
TEXT
 8
PARTTEXT
 10
  2.1000
 20
  3.9186
 30
0.0
 40
  0.0514
 1
1k
 0
LINE
 8
PARTS
 10
  1.8000
 20
  3.8000
 30
0.0
 11
  1.9000
 21
  3.8000
 31
0.0
 0
LINE
 8
PARTS
 10
  2.3000
 20
  3.8000
 30
0.0
 11
  2.2000
 21
  3.8000
 31
0.0
 0
POLYLINE
 8
PARTS
 66
1
 10
0.0
 20
0.0
 30
0.0
 0
VERTEX
 8
PARTS
 10
  1.9000
 20
  3.8000
 30
0.0
 0
VERTEX
 8
PARTS
 10
  1.9300
 20
  3.8300
 30
0.0
 0
SEQEND
 8
PARTS
 0
POLYLINE
 8
PARTS
 66
1
 10
0.0
 20
0.0
 30
0.0
 0
VERTEX
 8
PARTS
 10
  1.9300
 20
  3.8300
 30
0.0
 0
VERTEX
 8
PARTS
 10
  1.9900
 20
  3.7700
 30
0.0
 0
SEQEND
 8
PARTS
 0
POLYLINE
 8
PARTS
 66
1
 10
0.0
 20
0.0
 30
0.0
 0
VERTEX
 8
PARTS
 10
  1.9900
 20
  3.7700
 30
0.0
 0
VERTEX
 8
PARTS
 10
  2.0500
 20
  3.8300
 30
0.0
 0
SEQEND
 8
PARTS
 0
POLYLINE
 8
PARTS
 66
1
 10
0.0
 20
0.0
 30
0.0
 0
VERTEX
 8
PARTS
 10
  2.0500
 20
  3.8300
 30
0.0
 0
VERTEX
 8
PARTS
 10
  2.1100
 20
  3.7700
 30
0.0
 0
SEQEND
 8
PARTS
 0
POLYLINE
 8
PARTS
 66
1
 10
0.0
 20
0.0
 30
0.0
 0
VERTEX
 8
PARTS
 10
  2.1100
 20
  3.7700
 30
0.0
 0
VERTEX
 8
PARTS
 10
  2.1700
 20
  3.8300
 30
0.0
 0
SEQEND
 8
PARTS
 0
POLYLINE
 8
PARTS
 66
1
 10
0.0
 20
0.0
 30
0.0
 0
VERTEX
 8
PARTS
 10
  2.1700
 20
  3.8300
 30
0.0
 0
VERTEX
 8
PARTS
 10
  2.2000
 20
  3.8000
 30
0.0
 0
SEQEND
 8
PARTS
 0
TEXT
 8
PARTTEXT
 10
 12.4000
 20
  3.7186
 30
0.0
 40
  0.0514
 1
U13
 0
TEXT
 8
PARTTEXT
 10
 12.4000
 20
  3.6486
 30
0.0
 40
  0.0514
 1
LM340S
 0
LINE
 8
PARTS
 10
 12.1000
 20
  3.5000
 30
0.0
 11
 12.4000
 21
  3.5000
 31
0.0
 0
TEXT
 8
PARTS
 10
 12.4900
 20
  3.4750
 30
0.0
 40
  0.0500
 1
VOUT
 0
TEXT
 8
PARTS
 10
 12.3000
 20
  3.5300
 30
0.0
 40
  0.0500
 1
3
 0
LINE
 8
PARTS
 10
 12.9000
 20
  2.8000
 30
0.0
 11
 12.9000
 21
  3.1000
 31
0.0
 0
TEXT
 8
PARTS
 10
 12.9250
 20
  3.1900
 30
0.0
 40
  0.0500
 50
 90.0000
 1
GND
 0
TEXT
 8
PARTS
 10
 12.8700
 20
  2.9800
 30
0.0
 40
  0.0500
 50
 90.0000
 1
4
 0
LINE
 8
PARTS
 10
 13.5000
 20
  3.5000
 30
0.0
 11
 13.2000
 21
  3.5000
 31
0.0
 0
TEXT
 8
PARTS
 10
 12.9900
 20
  3.4750
 30
0.0
 40
  0.0500
 1
VIN
 0
TEXT
 8
PARTS
 10
 13.2600
 20
  3.5300
 30
0.0
 40
  0.0500
 1
1
 0
LINE
 8
PARTS
 10
 12.8000
 20
  2.8000
 30
0.0
 11
 12.8000
 21
  3.1000
 31
0.0
 0
TEXT
 8
PARTS
 10
 12.8250
 20
  3.1900
 30
0.0
 40
  0.0500
 50
 90.0000
 1
GND
 0
TEXT
 8
PARTS
 10
 12.7700
 20
  2.9800
 30
0.0
 40
  0.0500
 50
 90.0000
 1
2
 0
POLYLINE
 8
PARTS
 66
1
 70
1
 10
0.0
 20
0.0
 30
0.0
 0
VERTEX
 8
PARTS
 10
 13.2000
 20
  3.6000
 30
0.0
 0
VERTEX
 8
PARTS
 10
 12.4000
 20
  3.6000
 30
0.0
 0
VERTEX
 8
PARTS
 10
 12.4000
 20
  3.1000
 30
0.0
 0
VERTEX
 8
PARTS
 10
 13.2000
 20
  3.1000
 30
0.0
 0
SEQEND
 8
PARTS
 0
TEXT
 8
PARTTEXT
 10
  1.9000
 20
  2.8186
 30
0.0
 40
  0.0514
 1
R16
 0
TEXT
 8
PARTTEXT
 10
  2.1000
 20
  2.8186
 30
0.0
 40
  0.0514
 1
1k
 0
LINE
 8
PARTS
 10
  1.8000
 20
  2.7000
 30
0.0
 11
  1.9000
 21
  2.7000
 31
0.0
 0
LINE
 8
PARTS
 10
  2.3000
 20
  2.7000
 30
0.0
 11
  2.2000
 21
  2.7000
 31
0.0
 0
POLYLINE
 8
PARTS
 66
1
 10
0.0
 20
0.0
 30
0.0
 0
VERTEX
 8
PARTS
 10
  1.9000
 20
  2.7000
 30
0.0
 0
VERTEX
 8
PARTS
 10
  1.9300
 20
  2.7300
 30
0.0
 0
SEQEND
 8
PARTS
 0
POLYLINE
 8
PARTS
 66
1
 10
0.0
 20
0.0
 30
0.0
 0
VERTEX
 8
PARTS
 10
  1.9300
 20
  2.7300
 30
0.0
 0
VERTEX
 8
PARTS
 10
  1.9900
 20
  2.6700
 30
0.0
 0
SEQEND
 8
PARTS
 0
POLYLINE
 8
PARTS
 66
1
 10
0.0
 20
0.0
 30
0.0
 0
VERTEX
 8
PARTS
 10
  1.9900
 20
  2.6700
 30
0.0
 0
VERTEX
 8
PARTS
 10
  2.0500
 20
  2.7300
 30
0.0
 0
SEQEND
 8
PARTS
 0
POLYLINE
 8
PARTS
 66
1
 10
0.0
 20
0.0
 30
0.0
 0
VERTEX
 8
PARTS
 10
  2.0500
 20
  2.7300
 30
0.0
 0
VERTEX
 8
PARTS
 10
  2.1100
 20
  2.6700
 30
0.0
 0
SEQEND
 8
PARTS
 0
POLYLINE
 8
PARTS
 66
1
 10
0.0
 20
0.0
 30
0.0
 0
VERTEX
 8
PARTS
 10
  2.1100
 20
  2.6700
 30
0.0
 0
VERTEX
 8
PARTS
 10
  2.1700
 20
  2.7300
 30
0.0
 0
SEQEND
 8
PARTS
 0
POLYLINE
 8
PARTS
 66
1
 10
0.0
 20
0.0
 30
0.0
 0
VERTEX
 8
PARTS
 10
  2.1700
 20
  2.7300
 30
0.0
 0
VERTEX
 8
PARTS
 10
  2.2000
 20
  2.7000
 30
0.0
 0
SEQEND
 8
PARTS
 0
TEXT
 8
PARTTEXT
 10
  1.2000
 20
  7.9186
 30
0.0
 40
  0.0514
 1
U5
 0
TEXT
 8
PARTTEXT
 10
  1.4000
 20
  7.9186
 30
0.0
 40
  0.0514
 1
4N35
 0
LINE
 8
PARTS
 10
  1.0000
 20
  7.8000
 30
0.0
 11
  1.1000
 21
  7.8000
 31
0.0
 0
TEXT
 8
PARTS
 10
  1.0000
 20
  7.8300
 30
0.0
 40
  0.0500
 1
1
 0
LINE
 8
PARTS
 10
  1.8000
 20
  7.8000
 30
0.0
 11
  1.7000
 21
  7.8000
 31
0.0
 0
TEXT
 8
PARTS
 10
  1.7600
 20
  7.8300
 30
0.0
 40
  0.0500
 1
6
 0
LINE
 8
PARTS
 10
  1.0000
 20
  7.3000
 30
0.0
 11
  1.1000
 21
  7.3000
 31
0.0
 0
TEXT
 8
PARTS
 10
  1.0000
 20
  7.3300
 30
0.0
 40
  0.0500
 1
2
 0
LINE
 8
PARTS
 10
  1.8000
 20
  7.6000
 30
0.0
 11
  1.7000
 21
  7.6000
 31
0.0
 0
TEXT
 8
PARTS
 10
  1.7600
 20
  7.6300
 30
0.0
 40
  0.0500
 1
5
 0
LINE
 8
PARTS
 10
  1.8000
 20
  7.4000
 30
0.0
 11
  1.7000
 21
  7.4000
 31
0.0
 0
TEXT
 8
PARTS
 10
  1.7600
 20
  7.4300
 30
0.0
 40
  0.0500
 1
4
 0
POLYLINE
 8
PARTS
 66
1
 70
1
 10
0.0
 20
0.0
 30
0.0
 0
VERTEX
 8
PARTS
 10
  1.6700
 20
  7.4300
 30
0.0
 0
VERTEX
 8
PARTS
 10
  1.7000
 20
  7.4600
 30
0.0
 0
VERTEX
 8
PARTS
 10
  1.7000
 20
  7.4000
 30
0.0
 0
VERTEX
 8
PARTS
 10
  1.6400
 20
  7.4000
 30
0.0
 0
VERTEX
 8
PARTS
 10
  1.6700
 20
  7.4300
 30
0.0
 0
SEQEND
 8
PARTS
 0
POLYLINE
 8
PARTS
 66
1
 70
1
 10
0.0
 20
0.0
 30
0.0
 0
VERTEX
 8
PARTS
 10
  1.1500
 20
  7.6000
 30
0.0
 0
VERTEX
 8
PARTS
 10
  1.2500
 20
  7.6000
 30
0.0
 0
VERTEX
 8
PARTS
 10
  1.2000
 20
  7.5000
 30
0.0
 0
VERTEX
 8
PARTS
 10
  1.1500
 20
  7.6000
 30
0.0
 0
SEQEND
 8
PARTS
 0
POLYLINE
 8
PARTS
 66
1
 10
0.0
 20
0.0
 30
0.0
 0
VERTEX
 8
PARTS
 10
  1.1000
 20
  7.8000
 30
0.0
 0
VERTEX
 8
PARTS
 10
  1.2000
 20
  7.8000
 30
0.0
 0
SEQEND
 8
PARTS
 0
POLYLINE
 8
PARTS
 66
1
 10
0.0
 20
0.0
 30
0.0
 0
VERTEX
 8
PARTS
 10
  1.2000
 20
  7.8000
 30
0.0
 0
VERTEX
 8
PARTS
 10
  1.2000
 20
  7.6000
 30
0.0
 0
SEQEND
 8
PARTS
 0
POLYLINE
 8
PARTS
 66
1
 10
0.0
 20
0.0
 30
0.0
 0
VERTEX
 8
PARTS
 10
  1.1500
 20
  7.5000
 30
0.0
 0
VERTEX
 8
PARTS
 10
  1.2500
 20
  7.5000
 30
0.0
 0
SEQEND
 8
PARTS
 0
POLYLINE
 8
PARTS
 66
1
 10
0.0
 20
0.0
 30
0.0
 0
VERTEX
 8
PARTS
 10
  1.2000
 20
  7.5000
 30
0.0
 0
VERTEX
 8
PARTS
 10
  1.2000
 20
  7.3000
 30
0.0
 0
SEQEND
 8
PARTS
 0
POLYLINE
 8
PARTS
 66
1
 10
0.0
 20
0.0
 30
0.0
 0
VERTEX
 8
PARTS
 10
  1.2000
 20
  7.3000
 30
0.0
 0
VERTEX
 8
PARTS
 10
  1.1000
 20
  7.3000
 30
0.0
 0
SEQEND
 8
PARTS
 0
POLYLINE
 8
PARTS
 66
1
 10
0.0
 20
0.0
 30
0.0
 0
VERTEX
 8
PARTS
 10
  1.3900
 20
  7.6000
 30
0.0
 0
VERTEX
 8
PARTS
 10
  1.4300
 20
  7.5600
 30
0.0
 0
SEQEND
 8
PARTS
 0
POLYLINE
 8
PARTS
 66
1
 10
0.0
 20
0.0
 30
0.0
 0
VERTEX
 8
PARTS
 10
  1.4300
 20
  7.5600
 30
0.0
 0
VERTEX
 8
PARTS
 10
  1.4300
 20
  7.5900
 30
0.0
 0
SEQEND
 8
PARTS
 0
POLYLINE
 8
PARTS
 66
1
 10
0.0
 20
0.0
 30
0.0
 0
VERTEX
 8
PARTS
 10
  1.4300
 20
  7.5900
 30
0.0
 0
VERTEX
 8
PARTS
 10
  1.4700
 20
  7.5500
 30
0.0
 0
SEQEND
 8
PARTS
 0
POLYLINE
 8
PARTS
 66
1
 10
0.0
 20
0.0
 30
0.0
 0
VERTEX
 8
PARTS
 10
  1.4700
 20
  7.5500
 30
0.0
 0
VERTEX
 8
PARTS
 10
  1.4900
 20
  7.5700
 30
0.0
 0
SEQEND
 8
PARTS
 0
POLYLINE
 8
PARTS
 66
1
 10
0.0
 20
0.0
 30
0.0
 0
VERTEX
 8
PARTS
 10
  1.4900
 20
  7.5700
 30
0.0
 0
VERTEX
 8
PARTS
 10
  1.4900
 20
  7.5300
 30
0.0
 0
SEQEND
 8
PARTS
 0
POLYLINE
 8
PARTS
 66
1
 10
0.0
 20
0.0
 30
0.0
 0
VERTEX
 8
PARTS
 10
  1.4900
 20
  7.5300
 30
0.0
 0
VERTEX
 8
PARTS
 10
  1.4500
 20
  7.5300
 30
0.0
 0
SEQEND
 8
PARTS
 0
POLYLINE
 8
PARTS
 66
1
 10
0.0
 20
0.0
 30
0.0
 0
VERTEX
 8
PARTS
 10
  1.4500
 20
  7.5300
 30
0.0
 0
VERTEX
 8
PARTS
 10
  1.4700
 20
  7.5500
 30
0.0
 0
SEQEND
 8
PARTS
 0
POLYLINE
 8
PARTS
 66
1
 10
0.0
 20
0.0
 30
0.0
 0
VERTEX
 8
PARTS
 10
  1.3900
 20
  7.5200
 30
0.0
 0
VERTEX
 8
PARTS
 10
  1.4300
 20
  7.4800
 30
0.0
 0
SEQEND
 8
PARTS
 0
POLYLINE
 8
PARTS
 66
1
 10
0.0
 20
0.0
 30
0.0
 0
VERTEX
 8
PARTS
 10
  1.4300
 20
  7.4800
 30
0.0
 0
VERTEX
 8
PARTS
 10
  1.4300
 20
  7.5100
 30
0.0
 0
SEQEND
 8
PARTS
 0
POLYLINE
 8
PARTS
 66
1
 10
0.0
 20
0.0
 30
0.0
 0
VERTEX
 8
PARTS
 10
  1.4300
 20
  7.5100
 30
0.0
 0
VERTEX
 8
PARTS
 10
  1.4700
 20
  7.4700
 30
0.0
 0
SEQEND
 8
PARTS
 0
POLYLINE
 8
PARTS
 66
1
 10
0.0
 20
0.0
 30
0.0
 0
VERTEX
 8
PARTS
 10
  1.4700
 20
  7.4700
 30
0.0
 0
VERTEX
 8
PARTS
 10
  1.4900
 20
  7.4900
 30
0.0
 0
SEQEND
 8
PARTS
 0
POLYLINE
 8
PARTS
 66
1
 10
0.0
 20
0.0
 30
0.0
 0
VERTEX
 8
PARTS
 10
  1.4900
 20
  7.4900
 30
0.0
 0
VERTEX
 8
PARTS
 10
  1.4900
 20
  7.4500
 30
0.0
 0
SEQEND
 8
PARTS
 0
POLYLINE
 8
PARTS
 66
1
 10
0.0
 20
0.0
 30
0.0
 0
VERTEX
 8
PARTS
 10
  1.4900
 20
  7.4500
 30
0.0
 0
VERTEX
 8
PARTS
 10
  1.4500
 20
  7.4500
 30
0.0
 0
SEQEND
 8
PARTS
 0
POLYLINE
 8
PARTS
 66
1
 10
0.0
 20
0.0
 30
0.0
 0
VERTEX
 8
PARTS
 10
  1.4500
 20
  7.4500
 30
0.0
 0
VERTEX
 8
PARTS
 10
  1.4700
 20
  7.4700
 30
0.0
 0
SEQEND
 8
PARTS
 0
POLYLINE
 8
PARTS
 66
1
 10
0.0
 20
0.0
 30
0.0
 0
VERTEX
 8
PARTS
 10
  1.6000
 20
  7.5000
 30
0.0
 0
VERTEX
 8
PARTS
 10
  1.5500
 20
  7.5000
 30
0.0
 0
SEQEND
 8
PARTS
 0
POLYLINE
 8
PARTS
 66
1
 10
0.0
 20
0.0
 30
0.0
 0
VERTEX
 8
PARTS
 10
  1.5500
 20
  7.5000
 30
0.0
 0
VERTEX
 8
PARTS
 10
  1.5500
 20
  7.8000
 30
0.0
 0
SEQEND
 8
PARTS
 0
POLYLINE
 8
PARTS
 66
1
 10
0.0
 20
0.0
 30
0.0
 0
VERTEX
 8
PARTS
 10
  1.5500
 20
  7.8000
 30
0.0
 0
VERTEX
 8
PARTS
 10
  1.7000
 20
  7.8000
 30
0.0
 0
SEQEND
 8
PARTS
 0
POLYLINE
 8
PARTS
 66
1
 10
0.0
 20
0.0
 30
0.0
 0
VERTEX
 8
PARTS
 10
  1.7000
 20
  7.6000
 30
0.0
 0
VERTEX
 8
PARTS
 10
  1.6000
 20
  7.5000
 30
0.0
 0
SEQEND
 8
PARTS
 0
POLYLINE
 8
PARTS
 66
1
 10
0.0
 20
0.0
 30
0.0
 0
VERTEX
 8
PARTS
 10
  1.6000
 20
  7.5000
 30
0.0
 0
VERTEX
 8
PARTS
 10
  1.6700
 20
  7.4300
 30
0.0
 0
SEQEND
 8
PARTS
 0
POLYLINE
 8
PARTS
 66
1
 10
0.0
 20
0.0
 30
0.0
 0
VERTEX
 8
PARTS
 10
  1.6000
 20
  7.4000
 30
0.0
 0
VERTEX
 8
PARTS
 10
  1.6000
 20
  7.6000
 30
0.0
 0
SEQEND
 8
PARTS
 0
TEXT
 8
PARTTEXT
 10
 13.7500
 20
  3.3186
 30
0.0
 40
  0.0514
 1
C5
 0
TEXT
 8
PARTTEXT
 10
 13.7500
 20
  3.1886
 30
0.0
 40
  0.0514
 1
1uF
 0
LINE
 8
PARTS
 10
 13.6000
 20
  3.5000
 30
0.0
 11
 13.6000
 21
  3.4000
 31
0.0
 0
TEXT
 8
PARTS
 10
 13.5700
 20
  3.4600
 30
0.0
 40
  0.0500
 50
 90.0000
 1

 0
LINE
 8
PARTS
 10
 13.6000
 20
  3.1000
 30
0.0
 11
 13.6000
 21
  3.2000
 31
0.0
 0
TEXT
 8
PARTS
 10
 13.5700
 20
  3.0800
 30
0.0
 40
  0.0500
 50
 90.0000
 1

 0
POLYLINE
 8
PARTS
 66
1
 10
0.0
 20
0.0
 30
0.0
 0
VERTEX
 8
PARTS
 10
 13.6000
 20
  3.2600
 30
0.0
 0
VERTEX
 8
PARTS
 10
 13.6000
 20
  3.2000
 30
0.0
 0
SEQEND
 8
PARTS
 0
POLYLINE
 8
PARTS
 66
1
 10
0.0
 20
0.0
 30
0.0
 0
VERTEX
 8
PARTS
 10
 13.5000
 20
  3.3000
 30
0.0
 0
VERTEX
 8
PARTS
 10
 13.7000
 20
  3.3000
 30
0.0
 0
SEQEND
 8
PARTS
 0
POLYLINE
 8
PARTS
 66
1
 10
0.0
 20
0.0
 30
0.0
 0
VERTEX
 8
PARTS
 10
 13.6000
 20
  3.4000
 30
0.0
 0
VERTEX
 8
PARTS
 10
 13.6000
 20
  3.3000
 30
0.0
 0
SEQEND
 8
PARTS
 0
POLYLINE
 8
PARTS
 66
1
 10
0.0
 20
0.0
 30
0.0
 0
VERTEX
 8
PARTS
 10
 13.7000
 20
  3.2300
 30
0.0
 42
  0.1654
 0
VERTEX
 8
PARTS
 10
 13.6000
 20
  3.2600
 30
0.0
 0
SEQEND
 8
PARTS
 0
POLYLINE
 8
PARTS
 66
1
 10
0.0
 20
0.0
 30
0.0
 0
VERTEX
 8
PARTS
 10
 13.6000
 20
  3.2600
 30
0.0
 42
  0.1654
 0
VERTEX
 8
PARTS
 10
 13.5000
 20
  3.2300
 30
0.0
 0
SEQEND
 8
PARTS
 0
TEXT
 8
PARTTEXT
 10
 13.6300
 20
  3.3186
 30
0.0
 40
  0.0514
 1
+
 0
TEXT
 8
PARTTEXT
 10
  1.2000
 20
  6.3186
 30
0.0
 40
  0.0514
 1
U8
 0
TEXT
 8
PARTTEXT
 10
  1.4000
 20
  6.3186
 30
0.0
 40
  0.0514
 1
4N35
 0
LINE
 8
PARTS
 10
  1.0000
 20
  6.2000
 30
0.0
 11
  1.1000
 21
  6.2000
 31
0.0
 0
TEXT
 8
PARTS
 10
  1.0000
 20
  6.2300
 30
0.0
 40
  0.0500
 1
1
 0
LINE
 8
PARTS
 10
  1.8000
 20
  6.2000
 30
0.0
 11
  1.7000
 21
  6.2000
 31
0.0
 0
TEXT
 8
PARTS
 10
  1.7600
 20
  6.2300
 30
0.0
 40
  0.0500
 1
6
 0
LINE
 8
PARTS
 10
  1.0000
 20
  5.7000
 30
0.0
 11
  1.1000
 21
  5.7000
 31
0.0
 0
TEXT
 8
PARTS
 10
  1.0000
 20
  5.7300
 30
0.0
 40
  0.0500
 1
2
 0
LINE
 8
PARTS
 10
  1.8000
 20
  6.0000
 30
0.0
 11
  1.7000
 21
  6.0000
 31
0.0
 0
TEXT
 8
PARTS
 10
  1.7600
 20
  6.0300
 30
0.0
 40
  0.0500
 1
5
 0
LINE
 8
PARTS
 10
  1.8000
 20
  5.8000
 30
0.0
 11
  1.7000
 21
  5.8000
 31
0.0
 0
TEXT
 8
PARTS
 10
  1.7600
 20
  5.8300
 30
0.0
 40
  0.0500
 1
4
 0
POLYLINE
 8
PARTS
 66
1
 70
1
 10
0.0
 20
0.0
 30
0.0
 0
VERTEX
 8
PARTS
 10
  1.6700
 20
  5.8300
 30
0.0
 0
VERTEX
 8
PARTS
 10
  1.7000
 20
  5.8600
 30
0.0
 0
VERTEX
 8
PARTS
 10
  1.7000
 20
  5.8000
 30
0.0
 0
VERTEX
 8
PARTS
 10
  1.6400
 20
  5.8000
 30
0.0
 0
VERTEX
 8
PARTS
 10
  1.6700
 20
  5.8300
 30
0.0
 0
SEQEND
 8
PARTS
 0
POLYLINE
 8
PARTS
 66
1
 70
1
 10
0.0
 20
0.0
 30
0.0
 0
VERTEX
 8
PARTS
 10
  1.1500
 20
  6.0000
 30
0.0
 0
VERTEX
 8
PARTS
 10
  1.2500
 20
  6.0000
 30
0.0
 0
VERTEX
 8
PARTS
 10
  1.2000
 20
  5.9000
 30
0.0
 0
VERTEX
 8
PARTS
 10
  1.1500
 20
  6.0000
 30
0.0
 0
SEQEND
 8
PARTS
 0
POLYLINE
 8
PARTS
 66
1
 10
0.0
 20
0.0
 30
0.0
 0
VERTEX
 8
PARTS
 10
  1.1000
 20
  6.2000
 30
0.0
 0
VERTEX
 8
PARTS
 10
  1.2000
 20
  6.2000
 30
0.0
 0
SEQEND
 8
PARTS
 0
POLYLINE
 8
PARTS
 66
1
 10
0.0
 20
0.0
 30
0.0
 0
VERTEX
 8
PARTS
 10
  1.2000
 20
  6.2000
 30
0.0
 0
VERTEX
 8
PARTS
 10
  1.2000
 20
  6.0000
 30
0.0
 0
SEQEND
 8
PARTS
 0
POLYLINE
 8
PARTS
 66
1
 10
0.0
 20
0.0
 30
0.0
 0
VERTEX
 8
PARTS
 10
  1.1500
 20
  5.9000
 30
0.0
 0
VERTEX
 8
PARTS
 10
  1.2500
 20
  5.9000
 30
0.0
 0
SEQEND
 8
PARTS
 0
POLYLINE
 8
PARTS
 66
1
 10
0.0
 20
0.0
 30
0.0
 0
VERTEX
 8
PARTS
 10
  1.2000
 20
  5.9000
 30
0.0
 0
VERTEX
 8
PARTS
 10
  1.2000
 20
  5.7000
 30
0.0
 0
SEQEND
 8
PARTS
 0
POLYLINE
 8
PARTS
 66
1
 10
0.0
 20
0.0
 30
0.0
 0
VERTEX
 8
PARTS
 10
  1.2000
 20
  5.7000
 30
0.0
 0
VERTEX
 8
PARTS
 10
  1.1000
 20
  5.7000
 30
0.0
 0
SEQEND
 8
PARTS
 0
POLYLINE
 8
PARTS
 66
1
 10
0.0
 20
0.0
 30
0.0
 0
VERTEX
 8
PARTS
 10
  1.3900
 20
  6.0000
 30
0.0
 0
VERTEX
 8
PARTS
 10
  1.4300
 20
  5.9600
 30
0.0
 0
SEQEND
 8
PARTS
 0
POLYLINE
 8
PARTS
 66
1
 10
0.0
 20
0.0
 30
0.0
 0
VERTEX
 8
PARTS
 10
  1.4300
 20
  5.9600
 30
0.0
 0
VERTEX
 8
PARTS
 10
  1.4300
 20
  5.9900
 30
0.0
 0
SEQEND
 8
PARTS
 0
POLYLINE
 8
PARTS
 66
1
 10
0.0
 20
0.0
 30
0.0
 0
VERTEX
 8
PARTS
 10
  1.4300
 20
  5.9900
 30
0.0
 0
VERTEX
 8
PARTS
 10
  1.4700
 20
  5.9500
 30
0.0
 0
SEQEND
 8
PARTS
 0
POLYLINE
 8
PARTS
 66
1
 10
0.0
 20
0.0
 30
0.0
 0
VERTEX
 8
PARTS
 10
  1.4700
 20
  5.9500
 30
0.0
 0
VERTEX
 8
PARTS
 10
  1.4900
 20
  5.9700
 30
0.0
 0
SEQEND
 8
PARTS
 0
POLYLINE
 8
PARTS
 66
1
 10
0.0
 20
0.0
 30
0.0
 0
VERTEX
 8
PARTS
 10
  1.4900
 20
  5.9700
 30
0.0
 0
VERTEX
 8
PARTS
 10
  1.4900
 20
  5.9300
 30
0.0
 0
SEQEND
 8
PARTS
 0
POLYLINE
 8
PARTS
 66
1
 10
0.0
 20
0.0
 30
0.0
 0
VERTEX
 8
PARTS
 10
  1.4900
 20
  5.9300
 30
0.0
 0
VERTEX
 8
PARTS
 10
  1.4500
 20
  5.9300
 30
0.0
 0
SEQEND
 8
PARTS
 0
POLYLINE
 8
PARTS
 66
1
 10
0.0
 20
0.0
 30
0.0
 0
VERTEX
 8
PARTS
 10
  1.4500
 20
  5.9300
 30
0.0
 0
VERTEX
 8
PARTS
 10
  1.4700
 20
  5.9500
 30
0.0
 0
SEQEND
 8
PARTS
 0
POLYLINE
 8
PARTS
 66
1
 10
0.0
 20
0.0
 30
0.0
 0
VERTEX
 8
PARTS
 10
  1.3900
 20
  5.9200
 30
0.0
 0
VERTEX
 8
PARTS
 10
  1.4300
 20
  5.8800
 30
0.0
 0
SEQEND
 8
PARTS
 0
POLYLINE
 8
PARTS
 66
1
 10
0.0
 20
0.0
 30
0.0
 0
VERTEX
 8
PARTS
 10
  1.4300
 20
  5.8800
 30
0.0
 0
VERTEX
 8
PARTS
 10
  1.4300
 20
  5.9100
 30
0.0
 0
SEQEND
 8
PARTS
 0
POLYLINE
 8
PARTS
 66
1
 10
0.0
 20
0.0
 30
0.0
 0
VERTEX
 8
PARTS
 10
  1.4300
 20
  5.9100
 30
0.0
 0
VERTEX
 8
PARTS
 10
  1.4700
 20
  5.8700
 30
0.0
 0
SEQEND
 8
PARTS
 0
POLYLINE
 8
PARTS
 66
1
 10
0.0
 20
0.0
 30
0.0
 0
VERTEX
 8
PARTS
 10
  1.4700
 20
  5.8700
 30
0.0
 0
VERTEX
 8
PARTS
 10
  1.4900
 20
  5.8900
 30
0.0
 0
SEQEND
 8
PARTS
 0
POLYLINE
 8
PARTS
 66
1
 10
0.0
 20
0.0
 30
0.0
 0
VERTEX
 8
PARTS
 10
  1.4900
 20
  5.8900
 30
0.0
 0
VERTEX
 8
PARTS
 10
  1.4900
 20
  5.8500
 30
0.0
 0
SEQEND
 8
PARTS
 0
POLYLINE
 8
PARTS
 66
1
 10
0.0
 20
0.0
 30
0.0
 0
VERTEX
 8
PARTS
 10
  1.4900
 20
  5.8500
 30
0.0
 0
VERTEX
 8
PARTS
 10
  1.4500
 20
  5.8500
 30
0.0
 0
SEQEND
 8
PARTS
 0
POLYLINE
 8
PARTS
 66
1
 10
0.0
 20
0.0
 30
0.0
 0
VERTEX
 8
PARTS
 10
  1.4500
 20
  5.8500
 30
0.0
 0
VERTEX
 8
PARTS
 10
  1.4700
 20
  5.8700
 30
0.0
 0
SEQEND
 8
PARTS
 0
POLYLINE
 8
PARTS
 66
1
 10
0.0
 20
0.0
 30
0.0
 0
VERTEX
 8
PARTS
 10
  1.6000
 20
  5.9000
 30
0.0
 0
VERTEX
 8
PARTS
 10
  1.5500
 20
  5.9000
 30
0.0
 0
SEQEND
 8
PARTS
 0
POLYLINE
 8
PARTS
 66
1
 10
0.0
 20
0.0
 30
0.0
 0
VERTEX
 8
PARTS
 10
  1.5500
 20
  5.9000
 30
0.0
 0
VERTEX
 8
PARTS
 10
  1.5500
 20
  6.2000
 30
0.0
 0
SEQEND
 8
PARTS
 0
POLYLINE
 8
PARTS
 66
1
 10
0.0
 20
0.0
 30
0.0
 0
VERTEX
 8
PARTS
 10
  1.5500
 20
  6.2000
 30
0.0
 0
VERTEX
 8
PARTS
 10
  1.7000
 20
  6.2000
 30
0.0
 0
SEQEND
 8
PARTS
 0
POLYLINE
 8
PARTS
 66
1
 10
0.0
 20
0.0
 30
0.0
 0
VERTEX
 8
PARTS
 10
  1.7000
 20
  6.0000
 30
0.0
 0
VERTEX
 8
PARTS
 10
  1.6000
 20
  5.9000
 30
0.0
 0
SEQEND
 8
PARTS
 0
POLYLINE
 8
PARTS
 66
1
 10
0.0
 20
0.0
 30
0.0
 0
VERTEX
 8
PARTS
 10
  1.6000
 20
  5.9000
 30
0.0
 0
VERTEX
 8
PARTS
 10
  1.6700
 20
  5.8300
 30
0.0
 0
SEQEND
 8
PARTS
 0
POLYLINE
 8
PARTS
 66
1
 10
0.0
 20
0.0
 30
0.0
 0
VERTEX
 8
PARTS
 10
  1.6000
 20
  5.8000
 30
0.0
 0
VERTEX
 8
PARTS
 10
  1.6000
 20
  6.0000
 30
0.0
 0
SEQEND
 8
PARTS
 0
TEXT
 8
PARTTEXT
 10
  0.6000
 20
  2.7186
 30
0.0
 40
  0.0514
 1
R17
 0
TEXT
 8
PARTTEXT
 10
  0.8000
 20
  2.7186
 30
0.0
 40
  0.0514
 1
330
 0
LINE
 8
PARTS
 10
  0.5000
 20
  2.6000
 30
0.0
 11
  0.6000
 21
  2.6000
 31
0.0
 0
LINE
 8
PARTS
 10
  1.0000
 20
  2.6000
 30
0.0
 11
  0.9000
 21
  2.6000
 31
0.0
 0
POLYLINE
 8
PARTS
 66
1
 10
0.0
 20
0.0
 30
0.0
 0
VERTEX
 8
PARTS
 10
  0.6000
 20
  2.6000
 30
0.0
 0
VERTEX
 8
PARTS
 10
  0.6300
 20
  2.6300
 30
0.0
 0
SEQEND
 8
PARTS
 0
POLYLINE
 8
PARTS
 66
1
 10
0.0
 20
0.0
 30
0.0
 0
VERTEX
 8
PARTS
 10
  0.6300
 20
  2.6300
 30
0.0
 0
VERTEX
 8
PARTS
 10
  0.6900
 20
  2.5700
 30
0.0
 0
SEQEND
 8
PARTS
 0
POLYLINE
 8
PARTS
 66
1
 10
0.0
 20
0.0
 30
0.0
 0
VERTEX
 8
PARTS
 10
  0.6900
 20
  2.5700
 30
0.0
 0
VERTEX
 8
PARTS
 10
  0.7500
 20
  2.6300
 30
0.0
 0
SEQEND
 8
PARTS
 0
POLYLINE
 8
PARTS
 66
1
 10
0.0
 20
0.0
 30
0.0
 0
VERTEX
 8
PARTS
 10
  0.7500
 20
  2.6300
 30
0.0
 0
VERTEX
 8
PARTS
 10
  0.8100
 20
  2.5700
 30
0.0
 0
SEQEND
 8
PARTS
 0
POLYLINE
 8
PARTS
 66
1
 10
0.0
 20
0.0
 30
0.0
 0
VERTEX
 8
PARTS
 10
  0.8100
 20
  2.5700
 30
0.0
 0
VERTEX
 8
PARTS
 10
  0.8700
 20
  2.6300
 30
0.0
 0
SEQEND
 8
PARTS
 0
POLYLINE
 8
PARTS
 66
1
 10
0.0
 20
0.0
 30
0.0
 0
VERTEX
 8
PARTS
 10
  0.8700
 20
  2.6300
 30
0.0
 0
VERTEX
 8
PARTS
 10
  0.9000
 20
  2.6000
 30
0.0
 0
SEQEND
 8
PARTS
 0
TEXT
 8
PARTTEXT
 10
  0.6000
 20
  7.4186
 30
0.0
 40
  0.0514
 1
R6
 0
TEXT
 8
PARTTEXT
 10
  0.8000
 20
  7.4186
 30
0.0
 40
  0.0514
 1
330
 0
LINE
 8
PARTS
 10
  0.5000
 20
  7.3000
 30
0.0
 11
  0.6000
 21
  7.3000
 31
0.0
 0
LINE
 8
PARTS
 10
  1.0000
 20
  7.3000
 30
0.0
 11
  0.9000
 21
  7.3000
 31
0.0
 0
POLYLINE
 8
PARTS
 66
1
 10
0.0
 20
0.0
 30
0.0
 0
VERTEX
 8
PARTS
 10
  0.6000
 20
  7.3000
 30
0.0
 0
VERTEX
 8
PARTS
 10
  0.6300
 20
  7.3300
 30
0.0
 0
SEQEND
 8
PARTS
 0
POLYLINE
 8
PARTS
 66
1
 10
0.0
 20
0.0
 30
0.0
 0
VERTEX
 8
PARTS
 10
  0.6300
 20
  7.3300
 30
0.0
 0
VERTEX
 8
PARTS
 10
  0.6900
 20
  7.2700
 30
0.0
 0
SEQEND
 8
PARTS
 0
POLYLINE
 8
PARTS
 66
1
 10
0.0
 20
0.0
 30
0.0
 0
VERTEX
 8
PARTS
 10
  0.6900
 20
  7.2700
 30
0.0
 0
VERTEX
 8
PARTS
 10
  0.7500
 20
  7.3300
 30
0.0
 0
SEQEND
 8
PARTS
 0
POLYLINE
 8
PARTS
 66
1
 10
0.0
 20
0.0
 30
0.0
 0
VERTEX
 8
PARTS
 10
  0.7500
 20
  7.3300
 30
0.0
 0
VERTEX
 8
PARTS
 10
  0.8100
 20
  7.2700
 30
0.0
 0
SEQEND
 8
PARTS
 0
POLYLINE
 8
PARTS
 66
1
 10
0.0
 20
0.0
 30
0.0
 0
VERTEX
 8
PARTS
 10
  0.8100
 20
  7.2700
 30
0.0
 0
VERTEX
 8
PARTS
 10
  0.8700
 20
  7.3300
 30
0.0
 0
SEQEND
 8
PARTS
 0
POLYLINE
 8
PARTS
 66
1
 10
0.0
 20
0.0
 30
0.0
 0
VERTEX
 8
PARTS
 10
  0.8700
 20
  7.3300
 30
0.0
 0
VERTEX
 8
PARTS
 10
  0.9000
 20
  7.3000
 30
0.0
 0
SEQEND
 8
PARTS
 0
TEXT
 8
PARTTEXT
 10
  4.6000
 20
  4.1186
 30
0.0
 40
  0.0514
 1
U12
 0
TEXT
 8
PARTTEXT
 10
  4.3000
 20
  2.9186
 30
0.0
 40
  0.0514
 1
receive_connector
 0
LINE
 8
PARTS
 10
  4.0000
 20
  3.9000
 30
0.0
 11
  4.3000
 21
  3.9000
 31
0.0
 0
TEXT
 8
PARTS
 10
  4.3900
 20
  3.8750
 30
0.0
 40
  0.0500
 1
TPU0
 0
TEXT
 8
PARTS
 10
  4.2000
 20
  3.9300
 30
0.0
 40
  0.0500
 1
2
 0
LINE
 8
PARTS
 10
  4.0000
 20
  3.8000
 30
0.0
 11
  4.3000
 21
  3.8000
 31
0.0
 0
TEXT
 8
PARTS
 10
  4.3900
 20
  3.7750
 30
0.0
 40
  0.0500
 1
TPU1
 0
TEXT
 8
PARTS
 10
  4.2000
 20
  3.8300
 30
0.0
 40
  0.0500
 1
3
 0
LINE
 8
PARTS
 10
  4.0000
 20
  3.7000
 30
0.0
 11
  4.3000
 21
  3.7000
 31
0.0
 0
TEXT
 8
PARTS
 10
  4.3900
 20
  3.6750
 30
0.0
 40
  0.0500
 1
TPU2
 0
TEXT
 8
PARTS
 10
  4.2000
 20
  3.7300
 30
0.0
 40
  0.0500
 1
4
 0
LINE
 8
PARTS
 10
  4.0000
 20
  3.6000
 30
0.0
 11
  4.3000
 21
  3.6000
 31
0.0
 0
TEXT
 8
PARTS
 10
  4.3900
 20
  3.5750
 30
0.0
 40
  0.0500
 1
TPU3
 0
TEXT
 8
PARTS
 10
  4.2000
 20
  3.6300
 30
0.0
 40
  0.0500
 1
5
 0
LINE
 8
PARTS
 10
  4.0000
 20
  3.5000
 30
0.0
 11
  4.3000
 21
  3.5000
 31
0.0
 0
TEXT
 8
PARTS
 10
  4.3900
 20
  3.4750
 30
0.0
 40
  0.0500
 1
TPU4
 0
TEXT
 8
PARTS
 10
  4.2000
 20
  3.5300
 30
0.0
 40
  0.0500
 1
6
 0
LINE
 8
PARTS
 10
  4.0000
 20
  3.4000
 30
0.0
 11
  4.3000
 21
  3.4000
 31
0.0
 0
TEXT
 8
PARTS
 10
  4.3900
 20
  3.3750
 30
0.0
 40
  0.0500
 1
DIR1
 0
TEXT
 8
PARTS
 10
  4.2000
 20
  3.4300
 30
0.0
 40
  0.0500
 1
7
 0
LINE
 8
PARTS
 10
  4.0000
 20
  3.3000
 30
0.0
 11
  4.3000
 21
  3.3000
 31
0.0
 0
TEXT
 8
PARTS
 10
  4.3900
 20
  3.2750
 30
0.0
 40
  0.0500
 1
DIR2
 0
TEXT
 8
PARTS
 10
  4.2000
 20
  3.3300
 30
0.0
 40
  0.0500
 1
8
 0
LINE
 8
PARTS
 10
  4.0000
 20
  3.2000
 30
0.0
 11
  4.3000
 21
  3.2000
 31
0.0
 0
TEXT
 8
PARTS
 10
  4.3900
 20
  3.1750
 30
0.0
 40
  0.0500
 1
ARM
 0
TEXT
 8
PARTS
 10
  4.2000
 20
  3.2300
 30
0.0
 40
  0.0500
 1
9
 0
LINE
 8
PARTS
 10
  5.3000
 20
  3.9000
 30
0.0
 11
  5.0000
 21
  3.9000
 31
0.0
 0
TEXT
 8
PARTS
 10
  4.7100
 20
  3.8750
 30
0.0
 40
  0.0500
 1
LIGHT
 0
TEXT
 8
PARTS
 10
  5.0600
 20
  3.9300
 30
0.0
 40
  0.0500
 1
12
 0
LINE
 8
PARTS
 10
  4.0000
 20
  3.1000
 30
0.0
 11
  4.3000
 21
  3.1000
 31
0.0
 0
TEXT
 8
PARTS
 10
  4.3900
 20
  3.0750
 30
0.0
 40
  0.0500
 1
GND
 0
TEXT
 8
PARTS
 10
  4.1600
 20
  3.1300
 30
0.0
 40
  0.0500
 1
10
 0
LINE
 8
PARTS
 10
  5.3000
 20
  4.0000
 30
0.0
 11
  5.0000
 21
  4.0000
 31
0.0
 0
TEXT
 8
PARTS
 10
  4.8300
 20
  3.9750
 30
0.0
 40
  0.0500
 1
+5
 0
TEXT
 8
PARTS
 10
  5.0600
 20
  4.0300
 30
0.0
 40
  0.0500
 1
11
 0
LINE
 8
PARTS
 10
  5.3000
 20
  3.7000
 30
0.0
 11
  5.0000
 21
  3.7000
 31
0.0
 0
TEXT
 8
PARTS
 10
  4.5900
 20
  3.6750
 30
0.0
 40
  0.0500
 1
resetbut
 0
TEXT
 8
PARTS
 10
  5.0600
 20
  3.7300
 30
0.0
 40
  0.0500
 1
14
 0
LINE
 8
PARTS
 10
  5.3000
 20
  3.8000
 30
0.0
 11
  5.0000
 21
  3.8000
 31
0.0
 0
TEXT
 8
PARTS
 10
  4.7900
 20
  3.7750
 30
0.0
 40
  0.0500
 1
RAM
 0
TEXT
 8
PARTS
 10
  5.0600
 20
  3.8300
 30
0.0
 40
  0.0500
 1
13
 0
LINE
 8
PARTS
 10
  4.0000
 20
  4.0000
 30
0.0
 11
  4.3000
 21
  4.0000
 31
0.0
 0
TEXT
 8
PARTS
 10
  4.3900
 20
  3.9750
 30
0.0
 40
  0.0500
 1
+12
 0
TEXT
 8
PARTS
 10
  4.2000
 20
  4.0300
 30
0.0
 40
  0.0500
 1
1
 0
LINE
 8
PARTS
 10
  5.3000
 20
  3.1000
 30
0.0
 11
  5.0000
 21
  3.1000
 31
0.0
 0
TEXT
 8
PARTS
 10
  4.7900
 20
  3.0750
 30
0.0
 40
  0.0500
 1
GND
 0
TEXT
 8
PARTS
 10
  5.0600
 20
  3.1300
 30
0.0
 40
  0.0500
 1
15
 0
LINE
 8
PARTS
 10
  5.3000
 20
  3.5000
 30
0.0
 11
  5.0000
 21
  3.5000
 31
0.0
 0
TEXT
 8
PARTS
 10
  4.8300
 20
  3.4750
 30
0.0
 40
  0.0500
 1
X1
 0
TEXT
 8
PARTS
 10
  5.0600
 20
  3.5300
 30
0.0
 40
  0.0500
 1
17
 0
LINE
 8
PARTS
 10
  5.3000
 20
  3.4000
 30
0.0
 11
  5.0000
 21
  3.4000
 31
0.0
 0
TEXT
 8
PARTS
 10
  4.8300
 20
  3.3750
 30
0.0
 40
  0.0500
 1
X2
 0
TEXT
 8
PARTS
 10
  5.0600
 20
  3.4300
 30
0.0
 40
  0.0500
 1
18
 0
LINE
 8
PARTS
 10
  5.3000
 20
  3.3000
 30
0.0
 11
  5.0000
 21
  3.3000
 31
0.0
 0
TEXT
 8
PARTS
 10
  4.8300
 20
  3.2750
 30
0.0
 40
  0.0500
 1
X3
 0
TEXT
 8
PARTS
 10
  5.0600
 20
  3.3300
 30
0.0
 40
  0.0500
 1
19
 0
POLYLINE
 8
PARTS
 66
1
 70
1
 10
0.0
 20
0.0
 30
0.0
 0
VERTEX
 8
PARTS
 10
  4.3000
 20
  4.1000
 30
0.0
 0
VERTEX
 8
PARTS
 10
  5.0000
 20
  4.1000
 30
0.0
 0
VERTEX
 8
PARTS
 10
  5.0000
 20
  3.0000
 30
0.0
 0
VERTEX
 8
PARTS
 10
  4.3000
 20
  3.0000
 30
0.0
 0
SEQEND
 8
PARTS
 0
TEXT
 8
PARTTEXT
 10
 14.4500
 20
  4.9086
 30
0.0
 40
  0.0514
 1
J1
 0
TEXT
 8
PARTTEXT
 10
 14.3000
 20
  4.5186
 30
0.0
 40
  0.0514
 1
CON2
 0
LINE
 8
PARTS
 10
 14.7000
 20
  4.8000
 30
0.0
 11
 14.6000
 21
  4.8000
 31
0.0
 0
TEXT
 8
PARTS
 10
 14.4700
 20
  4.7750
 30
0.0
 40
  0.0500
 1
1
 0
TEXT
 8
PARTS
 10
 14.6600
 20
  4.8300
 30
0.0
 40
  0.0500
 1

 0
LINE
 8
PARTS
 10
 14.7000
 20
  4.7000
 30
0.0
 11
 14.6000
 21
  4.7000
 31
0.0
 0
TEXT
 8
PARTS
 10
 14.4700
 20
  4.6750
 30
0.0
 40
  0.0500
 1
2
 0
TEXT
 8
PARTS
 10
 14.6600
 20
  4.7300
 30
0.0
 40
  0.0500
 1

 0
POLYLINE
 8
PARTS
 66
1
 70
1
 10
0.0
 20
0.0
 30
0.0
 0
VERTEX
 8
PARTS
 10
 14.6000
 20
  4.9000
 30
0.0
 0
VERTEX
 8
PARTS
 10
 14.4000
 20
  4.9000
 30
0.0
 0
VERTEX
 8
PARTS
 10
 14.4000
 20
  4.6000
 30
0.0
 0
VERTEX
 8
PARTS
 10
 14.6000
 20
  4.6000
 30
0.0
 0
SEQEND
 8
PARTS
 0
TEXT
 8
PARTTEXT
 10
  0.6000
 20
  5.8186
 30
0.0
 40
  0.0514
 1
R10
 0
TEXT
 8
PARTTEXT
 10
  0.8000
 20
  5.8186
 30
0.0
 40
  0.0514
 1
330
 0
LINE
 8
PARTS
 10
  0.5000
 20
  5.7000
 30
0.0
 11
  0.6000
 21
  5.7000
 31
0.0
 0
LINE
 8
PARTS
 10
  1.0000
 20
  5.7000
 30
0.0
 11
  0.9000
 21
  5.7000
 31
0.0
 0
POLYLINE
 8
PARTS
 66
1
 10
0.0
 20
0.0
 30
0.0
 0
VERTEX
 8
PARTS
 10
  0.6000
 20
  5.7000
 30
0.0
 0
VERTEX
 8
PARTS
 10
  0.6300
 20
  5.7300
 30
0.0
 0
SEQEND
 8
PARTS
 0
POLYLINE
 8
PARTS
 66
1
 10
0.0
 20
0.0
 30
0.0
 0
VERTEX
 8
PARTS
 10
  0.6300
 20
  5.7300
 30
0.0
 0
VERTEX
 8
PARTS
 10
  0.6900
 20
  5.6700
 30
0.0
 0
SEQEND
 8
PARTS
 0
POLYLINE
 8
PARTS
 66
1
 10
0.0
 20
0.0
 30
0.0
 0
VERTEX
 8
PARTS
 10
  0.6900
 20
  5.6700
 30
0.0
 0
VERTEX
 8
PARTS
 10
  0.7500
 20
  5.7300
 30
0.0
 0
SEQEND
 8
PARTS
 0
POLYLINE
 8
PARTS
 66
1
 10
0.0
 20
0.0
 30
0.0
 0
VERTEX
 8
PARTS
 10
  0.7500
 20
  5.7300
 30
0.0
 0
VERTEX
 8
PARTS
 10
  0.8100
 20
  5.6700
 30
0.0
 0
SEQEND
 8
PARTS
 0
POLYLINE
 8
PARTS
 66
1
 10
0.0
 20
0.0
 30
0.0
 0
VERTEX
 8
PARTS
 10
  0.8100
 20
  5.6700
 30
0.0
 0
VERTEX
 8
PARTS
 10
  0.8700
 20
  5.7300
 30
0.0
 0
SEQEND
 8
PARTS
 0
POLYLINE
 8
PARTS
 66
1
 10
0.0
 20
0.0
 30
0.0
 0
VERTEX
 8
PARTS
 10
  0.8700
 20
  5.7300
 30
0.0
 0
VERTEX
 8
PARTS
 10
  0.9000
 20
  5.7000
 30
0.0
 0
SEQEND
 8
PARTS
 0
TEXT
 8
PARTTEXT
 10
  1.2000
 20
  3.2186
 30
0.0
 40
  0.0514
 1
U14
 0
TEXT
 8
PARTTEXT
 10
  1.4000
 20
  3.2186
 30
0.0
 40
  0.0514
 1
4N35
 0
LINE
 8
PARTS
 10
  1.0000
 20
  3.1000
 30
0.0
 11
  1.1000
 21
  3.1000
 31
0.0
 0
TEXT
 8
PARTS
 10
  1.0000
 20
  3.1300
 30
0.0
 40
  0.0500
 1
1
 0
LINE
 8
PARTS
 10
  1.8000
 20
  3.1000
 30
0.0
 11
  1.7000
 21
  3.1000
 31
0.0
 0
TEXT
 8
PARTS
 10
  1.7600
 20
  3.1300
 30
0.0
 40
  0.0500
 1
6
 0
LINE
 8
PARTS
 10
  1.0000
 20
  2.6000
 30
0.0
 11
  1.1000
 21
  2.6000
 31
0.0
 0
TEXT
 8
PARTS
 10
  1.0000
 20
  2.6300
 30
0.0
 40
  0.0500
 1
2
 0
LINE
 8
PARTS
 10
  1.8000
 20
  2.9000
 30
0.0
 11
  1.7000
 21
  2.9000
 31
0.0
 0
TEXT
 8
PARTS
 10
  1.7600
 20
  2.9300
 30
0.0
 40
  0.0500
 1
5
 0
LINE
 8
PARTS
 10
  1.8000
 20
  2.7000
 30
0.0
 11
  1.7000
 21
  2.7000
 31
0.0
 0
TEXT
 8
PARTS
 10
  1.7600
 20
  2.7300
 30
0.0
 40
  0.0500
 1
4
 0
POLYLINE
 8
PARTS
 66
1
 70
1
 10
0.0
 20
0.0
 30
0.0
 0
VERTEX
 8
PARTS
 10
  1.6700
 20
  2.7300
 30
0.0
 0
VERTEX
 8
PARTS
 10
  1.7000
 20
  2.7600
 30
0.0
 0
VERTEX
 8
PARTS
 10
  1.7000
 20
  2.7000
 30
0.0
 0
VERTEX
 8
PARTS
 10
  1.6400
 20
  2.7000
 30
0.0
 0
VERTEX
 8
PARTS
 10
  1.6700
 20
  2.7300
 30
0.0
 0
SEQEND
 8
PARTS
 0
POLYLINE
 8
PARTS
 66
1
 70
1
 10
0.0
 20
0.0
 30
0.0
 0
VERTEX
 8
PARTS
 10
  1.1500
 20
  2.9000
 30
0.0
 0
VERTEX
 8
PARTS
 10
  1.2500
 20
  2.9000
 30
0.0
 0
VERTEX
 8
PARTS
 10
  1.2000
 20
  2.8000
 30
0.0
 0
VERTEX
 8
PARTS
 10
  1.1500
 20
  2.9000
 30
0.0
 0
SEQEND
 8
PARTS
 0
POLYLINE
 8
PARTS
 66
1
 10
0.0
 20
0.0
 30
0.0
 0
VERTEX
 8
PARTS
 10
  1.1000
 20
  3.1000
 30
0.0
 0
VERTEX
 8
PARTS
 10
  1.2000
 20
  3.1000
 30
0.0
 0
SEQEND
 8
PARTS
 0
POLYLINE
 8
PARTS
 66
1
 10
0.0
 20
0.0
 30
0.0
 0
VERTEX
 8
PARTS
 10
  1.2000
 20
  3.1000
 30
0.0
 0
VERTEX
 8
PARTS
 10
  1.2000
 20
  2.9000
 30
0.0
 0
SEQEND
 8
PARTS
 0
POLYLINE
 8
PARTS
 66
1
 10
0.0
 20
0.0
 30
0.0
 0
VERTEX
 8
PARTS
 10
  1.1500
 20
  2.8000
 30
0.0
 0
VERTEX
 8
PARTS
 10
  1.2500
 20
  2.8000
 30
0.0
 0
SEQEND
 8
PARTS
 0
POLYLINE
 8
PARTS
 66
1
 10
0.0
 20
0.0
 30
0.0
 0
VERTEX
 8
PARTS
 10
  1.2000
 20
  2.8000
 30
0.0
 0
VERTEX
 8
PARTS
 10
  1.2000
 20
  2.6000
 30
0.0
 0
SEQEND
 8
PARTS
 0
POLYLINE
 8
PARTS
 66
1
 10
0.0
 20
0.0
 30
0.0
 0
VERTEX
 8
PARTS
 10
  1.2000
 20
  2.6000
 30
0.0
 0
VERTEX
 8
PARTS
 10
  1.1000
 20
  2.6000
 30
0.0
 0
SEQEND
 8
PARTS
 0
POLYLINE
 8
PARTS
 66
1
 10
0.0
 20
0.0
 30
0.0
 0
VERTEX
 8
PARTS
 10
  1.3900
 20
  2.9000
 30
0.0
 0
VERTEX
 8
PARTS
 10
  1.4300
 20
  2.8600
 30
0.0
 0
SEQEND
 8
PARTS
 0
POLYLINE
 8
PARTS
 66
1
 10
0.0
 20
0.0
 30
0.0
 0
VERTEX
 8
PARTS
 10
  1.4300
 20
  2.8600
 30
0.0
 0
VERTEX
 8
PARTS
 10
  1.4300
 20
  2.8900
 30
0.0
 0
SEQEND
 8
PARTS
 0
POLYLINE
 8
PARTS
 66
1
 10
0.0
 20
0.0
 30
0.0
 0
VERTEX
 8
PARTS
 10
  1.4300
 20
  2.8900
 30
0.0
 0
VERTEX
 8
PARTS
 10
  1.4700
 20
  2.8500
 30
0.0
 0
SEQEND
 8
PARTS
 0
POLYLINE
 8
PARTS
 66
1
 10
0.0
 20
0.0
 30
0.0
 0
VERTEX
 8
PARTS
 10
  1.4700
 20
  2.8500
 30
0.0
 0
VERTEX
 8
PARTS
 10
  1.4900
 20
  2.8700
 30
0.0
 0
SEQEND
 8
PARTS
 0
POLYLINE
 8
PARTS
 66
1
 10
0.0
 20
0.0
 30
0.0
 0
VERTEX
 8
PARTS
 10
  1.4900
 20
  2.8700
 30
0.0
 0
VERTEX
 8
PARTS
 10
  1.4900
 20
  2.8300
 30
0.0
 0
SEQEND
 8
PARTS
 0
POLYLINE
 8
PARTS
 66
1
 10
0.0
 20
0.0
 30
0.0
 0
VERTEX
 8
PARTS
 10
  1.4900
 20
  2.8300
 30
0.0
 0
VERTEX
 8
PARTS
 10
  1.4500
 20
  2.8300
 30
0.0
 0
SEQEND
 8
PARTS
 0
POLYLINE
 8
PARTS
 66
1
 10
0.0
 20
0.0
 30
0.0
 0
VERTEX
 8
PARTS
 10
  1.4500
 20
  2.8300
 30
0.0
 0
VERTEX
 8
PARTS
 10
  1.4700
 20
  2.8500
 30
0.0
 0
SEQEND
 8
PARTS
 0
POLYLINE
 8
PARTS
 66
1
 10
0.0
 20
0.0
 30
0.0
 0
VERTEX
 8
PARTS
 10
  1.3900
 20
  2.8200
 30
0.0
 0
VERTEX
 8
PARTS
 10
  1.4300
 20
  2.7800
 30
0.0
 0
SEQEND
 8
PARTS
 0
POLYLINE
 8
PARTS
 66
1
 10
0.0
 20
0.0
 30
0.0
 0
VERTEX
 8
PARTS
 10
  1.4300
 20
  2.7800
 30
0.0
 0
VERTEX
 8
PARTS
 10
  1.4300
 20
  2.8100
 30
0.0
 0
SEQEND
 8
PARTS
 0
POLYLINE
 8
PARTS
 66
1
 10
0.0
 20
0.0
 30
0.0
 0
VERTEX
 8
PARTS
 10
  1.4300
 20
  2.8100
 30
0.0
 0
VERTEX
 8
PARTS
 10
  1.4700
 20
  2.7700
 30
0.0
 0
SEQEND
 8
PARTS
 0
POLYLINE
 8
PARTS
 66
1
 10
0.0
 20
0.0
 30
0.0
 0
VERTEX
 8
PARTS
 10
  1.4700
 20
  2.7700
 30
0.0
 0
VERTEX
 8
PARTS
 10
  1.4900
 20
  2.7900
 30
0.0
 0
SEQEND
 8
PARTS
 0
POLYLINE
 8
PARTS
 66
1
 10
0.0
 20
0.0
 30
0.0
 0
VERTEX
 8
PARTS
 10
  1.4900
 20
  2.7900
 30
0.0
 0
VERTEX
 8
PARTS
 10
  1.4900
 20
  2.7500
 30
0.0
 0
SEQEND
 8
PARTS
 0
POLYLINE
 8
PARTS
 66
1
 10
0.0
 20
0.0
 30
0.0
 0
VERTEX
 8
PARTS
 10
  1.4900
 20
  2.7500
 30
0.0
 0
VERTEX
 8
PARTS
 10
  1.4500
 20
  2.7500
 30
0.0
 0
SEQEND
 8
PARTS
 0
POLYLINE
 8
PARTS
 66
1
 10
0.0
 20
0.0
 30
0.0
 0
VERTEX
 8
PARTS
 10
  1.4500
 20
  2.7500
 30
0.0
 0
VERTEX
 8
PARTS
 10
  1.4700
 20
  2.7700
 30
0.0
 0
SEQEND
 8
PARTS
 0
POLYLINE
 8
PARTS
 66
1
 10
0.0
 20
0.0
 30
0.0
 0
VERTEX
 8
PARTS
 10
  1.6000
 20
  2.8000
 30
0.0
 0
VERTEX
 8
PARTS
 10
  1.5500
 20
  2.8000
 30
0.0
 0
SEQEND
 8
PARTS
 0
POLYLINE
 8
PARTS
 66
1
 10
0.0
 20
0.0
 30
0.0
 0
VERTEX
 8
PARTS
 10
  1.5500
 20
  2.8000
 30
0.0
 0
VERTEX
 8
PARTS
 10
  1.5500
 20
  3.1000
 30
0.0
 0
SEQEND
 8
PARTS
 0
POLYLINE
 8
PARTS
 66
1
 10
0.0
 20
0.0
 30
0.0
 0
VERTEX
 8
PARTS
 10
  1.5500
 20
  3.1000
 30
0.0
 0
VERTEX
 8
PARTS
 10
  1.7000
 20
  3.1000
 30
0.0
 0
SEQEND
 8
PARTS
 0
POLYLINE
 8
PARTS
 66
1
 10
0.0
 20
0.0
 30
0.0
 0
VERTEX
 8
PARTS
 10
  1.7000
 20
  2.9000
 30
0.0
 0
VERTEX
 8
PARTS
 10
  1.6000
 20
  2.8000
 30
0.0
 0
SEQEND
 8
PARTS
 0
POLYLINE
 8
PARTS
 66
1
 10
0.0
 20
0.0
 30
0.0
 0
VERTEX
 8
PARTS
 10
  1.6000
 20
  2.8000
 30
0.0
 0
VERTEX
 8
PARTS
 10
  1.6700
 20
  2.7300
 30
0.0
 0
SEQEND
 8
PARTS
 0
POLYLINE
 8
PARTS
 66
1
 10
0.0
 20
0.0
 30
0.0
 0
VERTEX
 8
PARTS
 10
  1.6000
 20
  2.7000
 30
0.0
 0
VERTEX
 8
PARTS
 10
  1.6000
 20
  2.9000
 30
0.0
 0
SEQEND
 8
PARTS
 0
TEXT
 8
PARTTEXT
 10
  1.9000
 20
  7.5186
 30
0.0
 40
  0.0514
 1
R5
 0
TEXT
 8
PARTTEXT
 10
  2.1000
 20
  7.5186
 30
0.0
 40
  0.0514
 1
1k
 0
LINE
 8
PARTS
 10
  1.8000
 20
  7.4000
 30
0.0
 11
  1.9000
 21
  7.4000
 31
0.0
 0
LINE
 8
PARTS
 10
  2.3000
 20
  7.4000
 30
0.0
 11
  2.2000
 21
  7.4000
 31
0.0
 0
POLYLINE
 8
PARTS
 66
1
 10
0.0
 20
0.0
 30
0.0
 0
VERTEX
 8
PARTS
 10
  1.9000
 20
  7.4000
 30
0.0
 0
VERTEX
 8
PARTS
 10
  1.9300
 20
  7.4300
 30
0.0
 0
SEQEND
 8
PARTS
 0
POLYLINE
 8
PARTS
 66
1
 10
0.0
 20
0.0
 30
0.0
 0
VERTEX
 8
PARTS
 10
  1.9300
 20
  7.4300
 30
0.0
 0
VERTEX
 8
PARTS
 10
  1.9900
 20
  7.3700
 30
0.0
 0
SEQEND
 8
PARTS
 0
POLYLINE
 8
PARTS
 66
1
 10
0.0
 20
0.0
 30
0.0
 0
VERTEX
 8
PARTS
 10
  1.9900
 20
  7.3700
 30
0.0
 0
VERTEX
 8
PARTS
 10
  2.0500
 20
  7.4300
 30
0.0
 0
SEQEND
 8
PARTS
 0
POLYLINE
 8
PARTS
 66
1
 10
0.0
 20
0.0
 30
0.0
 0
VERTEX
 8
PARTS
 10
  2.0500
 20
  7.4300
 30
0.0
 0
VERTEX
 8
PARTS
 10
  2.1100
 20
  7.3700
 30
0.0
 0
SEQEND
 8
PARTS
 0
POLYLINE
 8
PARTS
 66
1
 10
0.0
 20
0.0
 30
0.0
 0
VERTEX
 8
PARTS
 10
  2.1100
 20
  7.3700
 30
0.0
 0
VERTEX
 8
PARTS
 10
  2.1700
 20
  7.4300
 30
0.0
 0
SEQEND
 8
PARTS
 0
POLYLINE
 8
PARTS
 66
1
 10
0.0
 20
0.0
 30
0.0
 0
VERTEX
 8
PARTS
 10
  2.1700
 20
  7.4300
 30
0.0
 0
VERTEX
 8
PARTS
 10
  2.2000
 20
  7.4000
 30
0.0
 0
SEQEND
 8
PARTS
 0
TEXT
 8
PARTTEXT
 10
  1.9000
 20
  5.9186
 30
0.0
 40
  0.0514
 1
R9
 0
TEXT
 8
PARTTEXT
 10
  2.1000
 20
  5.9186
 30
0.0
 40
  0.0514
 1
1k
 0
LINE
 8
PARTS
 10
  1.8000
 20
  5.8000
 30
0.0
 11
  1.9000
 21
  5.8000
 31
0.0
 0
LINE
 8
PARTS
 10
  2.3000
 20
  5.8000
 30
0.0
 11
  2.2000
 21
  5.8000
 31
0.0
 0
POLYLINE
 8
PARTS
 66
1
 10
0.0
 20
0.0
 30
0.0
 0
VERTEX
 8
PARTS
 10
  1.9000
 20
  5.8000
 30
0.0
 0
VERTEX
 8
PARTS
 10
  1.9300
 20
  5.8300
 30
0.0
 0
SEQEND
 8
PARTS
 0
POLYLINE
 8
PARTS
 66
1
 10
0.0
 20
0.0
 30
0.0
 0
VERTEX
 8
PARTS
 10
  1.9300
 20
  5.8300
 30
0.0
 0
VERTEX
 8
PARTS
 10
  1.9900
 20
  5.7700
 30
0.0
 0
SEQEND
 8
PARTS
 0
POLYLINE
 8
PARTS
 66
1
 10
0.0
 20
0.0
 30
0.0
 0
VERTEX
 8
PARTS
 10
  1.9900
 20
  5.7700
 30
0.0
 0
VERTEX
 8
PARTS
 10
  2.0500
 20
  5.8300
 30
0.0
 0
SEQEND
 8
PARTS
 0
POLYLINE
 8
PARTS
 66
1
 10
0.0
 20
0.0
 30
0.0
 0
VERTEX
 8
PARTS
 10
  2.0500
 20
  5.8300
 30
0.0
 0
VERTEX
 8
PARTS
 10
  2.1100
 20
  5.7700
 30
0.0
 0
SEQEND
 8
PARTS
 0
POLYLINE
 8
PARTS
 66
1
 10
0.0
 20
0.0
 30
0.0
 0
VERTEX
 8
PARTS
 10
  2.1100
 20
  5.7700
 30
0.0
 0
VERTEX
 8
PARTS
 10
  2.1700
 20
  5.8300
 30
0.0
 0
SEQEND
 8
PARTS
 0
POLYLINE
 8
PARTS
 66
1
 10
0.0
 20
0.0
 30
0.0
 0
VERTEX
 8
PARTS
 10
  2.1700
 20
  5.8300
 30
0.0
 0
VERTEX
 8
PARTS
 10
  2.2000
 20
  5.8000
 30
0.0
 0
SEQEND
 8
PARTS
 0
TEXT
 8
PARTTEXT
 10
  0.6000
 20
  1.7186
 30
0.0
 40
  0.0514
 1
R19
 0
TEXT
 8
PARTTEXT
 10
  0.8000
 20
  1.7186
 30
0.0
 40
  0.0514
 1
330
 0
LINE
 8
PARTS
 10
  0.5000
 20
  1.6000
 30
0.0
 11
  0.6000
 21
  1.6000
 31
0.0
 0
LINE
 8
PARTS
 10
  1.0000
 20
  1.6000
 30
0.0
 11
  0.9000
 21
  1.6000
 31
0.0
 0
POLYLINE
 8
PARTS
 66
1
 10
0.0
 20
0.0
 30
0.0
 0
VERTEX
 8
PARTS
 10
  0.6000
 20
  1.6000
 30
0.0
 0
VERTEX
 8
PARTS
 10
  0.6300
 20
  1.6300
 30
0.0
 0
SEQEND
 8
PARTS
 0
POLYLINE
 8
PARTS
 66
1
 10
0.0
 20
0.0
 30
0.0
 0
VERTEX
 8
PARTS
 10
  0.6300
 20
  1.6300
 30
0.0
 0
VERTEX
 8
PARTS
 10
  0.6900
 20
  1.5700
 30
0.0
 0
SEQEND
 8
PARTS
 0
POLYLINE
 8
PARTS
 66
1
 10
0.0
 20
0.0
 30
0.0
 0
VERTEX
 8
PARTS
 10
  0.6900
 20
  1.5700
 30
0.0
 0
VERTEX
 8
PARTS
 10
  0.7500
 20
  1.6300
 30
0.0
 0
SEQEND
 8
PARTS
 0
POLYLINE
 8
PARTS
 66
1
 10
0.0
 20
0.0
 30
0.0
 0
VERTEX
 8
PARTS
 10
  0.7500
 20
  1.6300
 30
0.0
 0
VERTEX
 8
PARTS
 10
  0.8100
 20
  1.5700
 30
0.0
 0
SEQEND
 8
PARTS
 0
POLYLINE
 8
PARTS
 66
1
 10
0.0
 20
0.0
 30
0.0
 0
VERTEX
 8
PARTS
 10
  0.8100
 20
  1.5700
 30
0.0
 0
VERTEX
 8
PARTS
 10
  0.8700
 20
  1.6300
 30
0.0
 0
SEQEND
 8
PARTS
 0
POLYLINE
 8
PARTS
 66
1
 10
0.0
 20
0.0
 30
0.0
 0
VERTEX
 8
PARTS
 10
  0.8700
 20
  1.6300
 30
0.0
 0
VERTEX
 8
PARTS
 10
  0.9000
 20
  1.6000
 30
0.0
 0
SEQEND
 8
PARTS
 0
TEXT
 8
PARTTEXT
 10
  1.9000
 20
  1.8186
 30
0.0
 40
  0.0514
 1
R18
 0
TEXT
 8
PARTTEXT
 10
  2.1000
 20
  1.8186
 30
0.0
 40
  0.0514
 1
1k
 0
LINE
 8
PARTS
 10
  1.8000
 20
  1.7000
 30
0.0
 11
  1.9000
 21
  1.7000
 31
0.0
 0
LINE
 8
PARTS
 10
  2.3000
 20
  1.7000
 30
0.0
 11
  2.2000
 21
  1.7000
 31
0.0
 0
POLYLINE
 8
PARTS
 66
1
 10
0.0
 20
0.0
 30
0.0
 0
VERTEX
 8
PARTS
 10
  1.9000
 20
  1.7000
 30
0.0
 0
VERTEX
 8
PARTS
 10
  1.9300
 20
  1.7300
 30
0.0
 0
SEQEND
 8
PARTS
 0
POLYLINE
 8
PARTS
 66
1
 10
0.0
 20
0.0
 30
0.0
 0
VERTEX
 8
PARTS
 10
  1.9300
 20
  1.7300
 30
0.0
 0
VERTEX
 8
PARTS
 10
  1.9900
 20
  1.6700
 30
0.0
 0
SEQEND
 8
PARTS
 0
POLYLINE
 8
PARTS
 66
1
 10
0.0
 20
0.0
 30
0.0
 0
VERTEX
 8
PARTS
 10
  1.9900
 20
  1.6700
 30
0.0
 0
VERTEX
 8
PARTS
 10
  2.0500
 20
  1.7300
 30
0.0
 0
SEQEND
 8
PARTS
 0
POLYLINE
 8
PARTS
 66
1
 10
0.0
 20
0.0
 30
0.0
 0
VERTEX
 8
PARTS
 10
  2.0500
 20
  1.7300
 30
0.0
 0
VERTEX
 8
PARTS
 10
  2.1100
 20
  1.6700
 30
0.0
 0
SEQEND
 8
PARTS
 0
POLYLINE
 8
PARTS
 66
1
 10
0.0
 20
0.0
 30
0.0
 0
VERTEX
 8
PARTS
 10
  2.1100
 20
  1.6700
 30
0.0
 0
VERTEX
 8
PARTS
 10
  2.1700
 20
  1.7300
 30
0.0
 0
SEQEND
 8
PARTS
 0
POLYLINE
 8
PARTS
 66
1
 10
0.0
 20
0.0
 30
0.0
 0
VERTEX
 8
PARTS
 10
  2.1700
 20
  1.7300
 30
0.0
 0
VERTEX
 8
PARTS
 10
  2.2000
 20
  1.7000
 30
0.0
 0
SEQEND
 8
PARTS
 0
TEXT
 8
PARTTEXT
 10
  1.9000
 20
  9.1186
 30
0.0
 40
  0.0514
 1
R1
 0
TEXT
 8
PARTTEXT
 10
  2.1000
 20
  9.1186
 30
0.0
 40
  0.0514
 1
1k
 0
LINE
 8
PARTS
 10
  1.8000
 20
  9.0000
 30
0.0
 11
  1.9000
 21
  9.0000
 31
0.0
 0
LINE
 8
PARTS
 10
  2.3000
 20
  9.0000
 30
0.0
 11
  2.2000
 21
  9.0000
 31
0.0
 0
POLYLINE
 8
PARTS
 66
1
 10
0.0
 20
0.0
 30
0.0
 0
VERTEX
 8
PARTS
 10
  1.9000
 20
  9.0000
 30
0.0
 0
VERTEX
 8
PARTS
 10
  1.9300
 20
  9.0300
 30
0.0
 0
SEQEND
 8
PARTS
 0
POLYLINE
 8
PARTS
 66
1
 10
0.0
 20
0.0
 30
0.0
 0
VERTEX
 8
PARTS
 10
  1.9300
 20
  9.0300
 30
0.0
 0
VERTEX
 8
PARTS
 10
  1.9900
 20
  8.9700
 30
0.0
 0
SEQEND
 8
PARTS
 0
POLYLINE
 8
PARTS
 66
1
 10
0.0
 20
0.0
 30
0.0
 0
VERTEX
 8
PARTS
 10
  1.9900
 20
  8.9700
 30
0.0
 0
VERTEX
 8
PARTS
 10
  2.0500
 20
  9.0300
 30
0.0
 0
SEQEND
 8
PARTS
 0
POLYLINE
 8
PARTS
 66
1
 10
0.0
 20
0.0
 30
0.0
 0
VERTEX
 8
PARTS
 10
  2.0500
 20
  9.0300
 30
0.0
 0
VERTEX
 8
PARTS
 10
  2.1100
 20
  8.9700
 30
0.0
 0
SEQEND
 8
PARTS
 0
POLYLINE
 8
PARTS
 66
1
 10
0.0
 20
0.0
 30
0.0
 0
VERTEX
 8
PARTS
 10
  2.1100
 20
  8.9700
 30
0.0
 0
VERTEX
 8
PARTS
 10
  2.1700
 20
  9.0300
 30
0.0
 0
SEQEND
 8
PARTS
 0
POLYLINE
 8
PARTS
 66
1
 10
0.0
 20
0.0
 30
0.0
 0
VERTEX
 8
PARTS
 10
  2.1700
 20
  9.0300
 30
0.0
 0
VERTEX
 8
PARTS
 10
  2.2000
 20
  9.0000
 30
0.0
 0
SEQEND
 8
PARTS
 0
TEXT
 8
PARTTEXT
 10
  5.2500
 20
  8.1086
 30
0.0
 40
  0.0514
 1
JP2
 0
TEXT
 8
PARTTEXT
 10
  5.2000
 20
  7.0186
 30
0.0
 40
  0.0514
 1
TPU8_15
 0
CIRCLE
 8
PARTS
 10
  5.1700
 20
  8.0000
 30
0.0
 40
  0.0300
 0
LINE
 8
PARTS
 10
  4.9000
 20
  8.0000
 30
0.0
 11
  5.1400
 21
  8.0000
 31
0.0
 0
TEXT
 8
PARTS
 10
  5.2900
 20
  7.9750
 30
0.0
 40
  0.0500
 1
1
 0
TEXT
 8
PARTS
 10
  5.1400
 20
  8.0300
 30
0.0
 40
  0.0500
 1

 0
CIRCLE
 8
PARTS
 10
  5.1700
 20
  7.9000
 30
0.0
 40
  0.0300
 0
LINE
 8
PARTS
 10
  4.9000
 20
  7.9000
 30
0.0
 11
  5.1400
 21
  7.9000
 31
0.0
 0
TEXT
 8
PARTS
 10
  5.2900
 20
  7.8750
 30
0.0
 40
  0.0500
 1
2
 0
TEXT
 8
PARTS
 10
  5.1400
 20
  7.9300
 30
0.0
 40
  0.0500
 1

 0
CIRCLE
 8
PARTS
 10
  5.1700
 20
  7.8000
 30
0.0
 40
  0.0300
 0
LINE
 8
PARTS
 10
  4.9000
 20
  7.8000
 30
0.0
 11
  5.1400
 21
  7.8000
 31
0.0
 0
TEXT
 8
PARTS
 10
  5.2900
 20
  7.7750
 30
0.0
 40
  0.0500
 1
3
 0
TEXT
 8
PARTS
 10
  5.1400
 20
  7.8300
 30
0.0
 40
  0.0500
 1

 0
CIRCLE
 8
PARTS
 10
  5.1700
 20
  7.7000
 30
0.0
 40
  0.0300
 0
LINE
 8
PARTS
 10
  4.9000
 20
  7.7000
 30
0.0
 11
  5.1400
 21
  7.7000
 31
0.0
 0
TEXT
 8
PARTS
 10
  5.2900
 20
  7.6750
 30
0.0
 40
  0.0500
 1
4
 0
TEXT
 8
PARTS
 10
  5.1400
 20
  7.7300
 30
0.0
 40
  0.0500
 1

 0
CIRCLE
 8
PARTS
 10
  5.1700
 20
  7.6000
 30
0.0
 40
  0.0300
 0
LINE
 8
PARTS
 10
  4.9000
 20
  7.6000
 30
0.0
 11
  5.1400
 21
  7.6000
 31
0.0
 0
TEXT
 8
PARTS
 10
  5.2900
 20
  7.5750
 30
0.0
 40
  0.0500
 1
5
 0
TEXT
 8
PARTS
 10
  5.1400
 20
  7.6300
 30
0.0
 40
  0.0500
 1

 0
CIRCLE
 8
PARTS
 10
  5.1700
 20
  7.5000
 30
0.0
 40
  0.0300
 0
LINE
 8
PARTS
 10
  4.9000
 20
  7.5000
 30
0.0
 11
  5.1400
 21
  7.5000
 31
0.0
 0
TEXT
 8
PARTS
 10
  5.2900
 20
  7.4750
 30
0.0
 40
  0.0500
 1
6
 0
TEXT
 8
PARTS
 10
  5.1400
 20
  7.5300
 30
0.0
 40
  0.0500
 1

 0
CIRCLE
 8
PARTS
 10
  5.1700
 20
  7.4000
 30
0.0
 40
  0.0300
 0
LINE
 8
PARTS
 10
  4.9000
 20
  7.4000
 30
0.0
 11
  5.1400
 21
  7.4000
 31
0.0
 0
TEXT
 8
PARTS
 10
  5.2900
 20
  7.3750
 30
0.0
 40
  0.0500
 1
7
 0
TEXT
 8
PARTS
 10
  5.1400
 20
  7.4300
 30
0.0
 40
  0.0500
 1

 0
CIRCLE
 8
PARTS
 10
  5.1700
 20
  7.3000
 30
0.0
 40
  0.0300
 0
LINE
 8
PARTS
 10
  4.9000
 20
  7.3000
 30
0.0
 11
  5.1400
 21
  7.3000
 31
0.0
 0
TEXT
 8
PARTS
 10
  5.2900
 20
  7.2750
 30
0.0
 40
  0.0500
 1
8
 0
TEXT
 8
PARTS
 10
  5.1400
 20
  7.3300
 30
0.0
 40
  0.0500
 1

 0
POLYLINE
 8
PARTS
 66
1
 70
1
 10
0.0
 20
0.0
 30
0.0
 0
VERTEX
 8
PARTS
 10
  5.2000
 20
  8.1000
 30
0.0
 0
VERTEX
 8
PARTS
 10
  5.5000
 20
  8.1000
 30
0.0
 0
VERTEX
 8
PARTS
 10
  5.5000
 20
  7.2000
 30
0.0
 0
VERTEX
 8
PARTS
 10
  5.2000
 20
  7.2000
 30
0.0
 0
SEQEND
 8
PARTS
 0
TEXT
 8
PARTTEXT
 10
  4.0500
 20
  6.6086
 30
0.0
 40
  0.0514
 1
JP3
 0
TEXT
 8
PARTTEXT
 10
  4.0000
 20
  5.5186
 30
0.0
 40
  0.0514
 1
PORT E
 0
CIRCLE
 8
PARTS
 10
  3.9700
 20
  6.5000
 30
0.0
 40
  0.0300
 0
LINE
 8
PARTS
 10
  3.7000
 20
  6.5000
 30
0.0
 11
  3.9400
 21
  6.5000
 31
0.0
 0
TEXT
 8
PARTS
 10
  4.0900
 20
  6.4750
 30
0.0
 40
  0.0500
 1
1
 0
TEXT
 8
PARTS
 10
  3.9400
 20
  6.5300
 30
0.0
 40
  0.0500
 1

 0
CIRCLE
 8
PARTS
 10
  3.9700
 20
  6.4000
 30
0.0
 40
  0.0300
 0
LINE
 8
PARTS
 10
  3.7000
 20
  6.4000
 30
0.0
 11
  3.9400
 21
  6.4000
 31
0.0
 0
TEXT
 8
PARTS
 10
  4.0900
 20
  6.3750
 30
0.0
 40
  0.0500
 1
2
 0
TEXT
 8
PARTS
 10
  3.9400
 20
  6.4300
 30
0.0
 40
  0.0500
 1

 0
CIRCLE
 8
PARTS
 10
  3.9700
 20
  6.3000
 30
0.0
 40
  0.0300
 0
LINE
 8
PARTS
 10
  3.7000
 20
  6.3000
 30
0.0
 11
  3.9400
 21
  6.3000
 31
0.0
 0
TEXT
 8
PARTS
 10
  4.0900
 20
  6.2750
 30
0.0
 40
  0.0500
 1
3
 0
TEXT
 8
PARTS
 10
  3.9400
 20
  6.3300
 30
0.0
 40
  0.0500
 1

 0
CIRCLE
 8
PARTS
 10
  3.9700
 20
  6.2000
 30
0.0
 40
  0.0300
 0
LINE
 8
PARTS
 10
  3.7000
 20
  6.2000
 30
0.0
 11
  3.9400
 21
  6.2000
 31
0.0
 0
TEXT
 8
PARTS
 10
  4.0900
 20
  6.1750
 30
0.0
 40
  0.0500
 1
4
 0
TEXT
 8
PARTS
 10
  3.9400
 20
  6.2300
 30
0.0
 40
  0.0500
 1

 0
CIRCLE
 8
PARTS
 10
  3.9700
 20
  6.1000
 30
0.0
 40
  0.0300
 0
LINE
 8
PARTS
 10
  3.7000
 20
  6.1000
 30
0.0
 11
  3.9400
 21
  6.1000
 31
0.0
 0
TEXT
 8
PARTS
 10
  4.0900
 20
  6.0750
 30
0.0
 40
  0.0500
 1
5
 0
TEXT
 8
PARTS
 10
  3.9400
 20
  6.1300
 30
0.0
 40
  0.0500
 1

 0
CIRCLE
 8
PARTS
 10
  3.9700
 20
  6.0000
 30
0.0
 40
  0.0300
 0
LINE
 8
PARTS
 10
  3.7000
 20
  6.0000
 30
0.0
 11
  3.9400
 21
  6.0000
 31
0.0
 0
TEXT
 8
PARTS
 10
  4.0900
 20
  5.9750
 30
0.0
 40
  0.0500
 1
6
 0
TEXT
 8
PARTS
 10
  3.9400
 20
  6.0300
 30
0.0
 40
  0.0500
 1

 0
CIRCLE
 8
PARTS
 10
  3.9700
 20
  5.9000
 30
0.0
 40
  0.0300
 0
LINE
 8
PARTS
 10
  3.7000
 20
  5.9000
 30
0.0
 11
  3.9400
 21
  5.9000
 31
0.0
 0
TEXT
 8
PARTS
 10
  4.0900
 20
  5.8750
 30
0.0
 40
  0.0500
 1
7
 0
TEXT
 8
PARTS
 10
  3.9400
 20
  5.9300
 30
0.0
 40
  0.0500
 1

 0
CIRCLE
 8
PARTS
 10
  3.9700
 20
  5.8000
 30
0.0
 40
  0.0300
 0
LINE
 8
PARTS
 10
  3.7000
 20
  5.8000
 30
0.0
 11
  3.9400
 21
  5.8000
 31
0.0
 0
TEXT
 8
PARTS
 10
  4.0900
 20
  5.7750
 30
0.0
 40
  0.0500
 1
8
 0
TEXT
 8
PARTS
 10
  3.9400
 20
  5.8300
 30
0.0
 40
  0.0500
 1

 0
POLYLINE
 8
PARTS
 66
1
 70
1
 10
0.0
 20
0.0
 30
0.0
 0
VERTEX
 8
PARTS
 10
  4.0000
 20
  6.6000
 30
0.0
 0
VERTEX
 8
PARTS
 10
  4.3000
 20
  6.6000
 30
0.0
 0
VERTEX
 8
PARTS
 10
  4.3000
 20
  5.7000
 30
0.0
 0
VERTEX
 8
PARTS
 10
  4.0000
 20
  5.7000
 30
0.0
 0
SEQEND
 8
PARTS
 0
TEXT
 8
PARTTEXT
 10
  1.2000
 20
  2.2186
 30
0.0
 40
  0.0514
 1
U15
 0
TEXT
 8
PARTTEXT
 10
  1.4000
 20
  2.2186
 30
0.0
 40
  0.0514
 1
4N35
 0
LINE
 8
PARTS
 10
  1.0000
 20
  2.1000
 30
0.0
 11
  1.1000
 21
  2.1000
 31
0.0
 0
TEXT
 8
PARTS
 10
  1.0000
 20
  2.1300
 30
0.0
 40
  0.0500
 1
1
 0
LINE
 8
PARTS
 10
  1.8000
 20
  2.1000
 30
0.0
 11
  1.7000
 21
  2.1000
 31
0.0
 0
TEXT
 8
PARTS
 10
  1.7600
 20
  2.1300
 30
0.0
 40
  0.0500
 1
6
 0
LINE
 8
PARTS
 10
  1.0000
 20
  1.6000
 30
0.0
 11
  1.1000
 21
  1.6000
 31
0.0
 0
TEXT
 8
PARTS
 10
  1.0000
 20
  1.6300
 30
0.0
 40
  0.0500
 1
2
 0
LINE
 8
PARTS
 10
  1.8000
 20
  1.9000
 30
0.0
 11
  1.7000
 21
  1.9000
 31
0.0
 0
TEXT
 8
PARTS
 10
  1.7600
 20
  1.9300
 30
0.0
 40
  0.0500
 1
5
 0
LINE
 8
PARTS
 10
  1.8000
 20
  1.7000
 30
0.0
 11
  1.7000
 21
  1.7000
 31
0.0
 0
TEXT
 8
PARTS
 10
  1.7600
 20
  1.7300
 30
0.0
 40
  0.0500
 1
4
 0
POLYLINE
 8
PARTS
 66
1
 70
1
 10
0.0
 20
0.0
 30
0.0
 0
VERTEX
 8
PARTS
 10
  1.6700
 20
  1.7300
 30
0.0
 0
VERTEX
 8
PARTS
 10
  1.7000
 20
  1.7600
 30
0.0
 0
VERTEX
 8
PARTS
 10
  1.7000
 20
  1.7000
 30
0.0
 0
VERTEX
 8
PARTS
 10
  1.6400
 20
  1.7000
 30
0.0
 0
VERTEX
 8
PARTS
 10
  1.6700
 20
  1.7300
 30
0.0
 0
SEQEND
 8
PARTS
 0
POLYLINE
 8
PARTS
 66
1
 70
1
 10
0.0
 20
0.0
 30
0.0
 0
VERTEX
 8
PARTS
 10
  1.1500
 20
  1.9000
 30
0.0
 0
VERTEX
 8
PARTS
 10
  1.2500
 20
  1.9000
 30
0.0
 0
VERTEX
 8
PARTS
 10
  1.2000
 20
  1.8000
 30
0.0
 0
VERTEX
 8
PARTS
 10
  1.1500
 20
  1.9000
 30
0.0
 0
SEQEND
 8
PARTS
 0
POLYLINE
 8
PARTS
 66
1
 10
0.0
 20
0.0
 30
0.0
 0
VERTEX
 8
PARTS
 10
  1.1000
 20
  2.1000
 30
0.0
 0
VERTEX
 8
PARTS
 10
  1.2000
 20
  2.1000
 30
0.0
 0
SEQEND
 8
PARTS
 0
POLYLINE
 8
PARTS
 66
1
 10
0.0
 20
0.0
 30
0.0
 0
VERTEX
 8
PARTS
 10
  1.2000
 20
  2.1000
 30
0.0
 0
VERTEX
 8
PARTS
 10
  1.2000
 20
  1.9000
 30
0.0
 0
SEQEND
 8
PARTS
 0
POLYLINE
 8
PARTS
 66
1
 10
0.0
 20
0.0
 30
0.0
 0
VERTEX
 8
PARTS
 10
  1.1500
 20
  1.8000
 30
0.0
 0
VERTEX
 8
PARTS
 10
  1.2500
 20
  1.8000
 30
0.0
 0
SEQEND
 8
PARTS
 0
POLYLINE
 8
PARTS
 66
1
 10
0.0
 20
0.0
 30
0.0
 0
VERTEX
 8
PARTS
 10
  1.2000
 20
  1.8000
 30
0.0
 0
VERTEX
 8
PARTS
 10
  1.2000
 20
  1.6000
 30
0.0
 0
SEQEND
 8
PARTS
 0
POLYLINE
 8
PARTS
 66
1
 10
0.0
 20
0.0
 30
0.0
 0
VERTEX
 8
PARTS
 10
  1.2000
 20
  1.6000
 30
0.0
 0
VERTEX
 8
PARTS
 10
  1.1000
 20
  1.6000
 30
0.0
 0
SEQEND
 8
PARTS
 0
POLYLINE
 8
PARTS
 66
1
 10
0.0
 20
0.0
 30
0.0
 0
VERTEX
 8
PARTS
 10
  1.3900
 20
  1.9000
 30
0.0
 0
VERTEX
 8
PARTS
 10
  1.4300
 20
  1.8600
 30
0.0
 0
SEQEND
 8
PARTS
 0
POLYLINE
 8
PARTS
 66
1
 10
0.0
 20
0.0
 30
0.0
 0
VERTEX
 8
PARTS
 10
  1.4300
 20
  1.8600
 30
0.0
 0
VERTEX
 8
PARTS
 10
  1.4300
 20
  1.8900
 30
0.0
 0
SEQEND
 8
PARTS
 0
POLYLINE
 8
PARTS
 66
1
 10
0.0
 20
0.0
 30
0.0
 0
VERTEX
 8
PARTS
 10
  1.4300
 20
  1.8900
 30
0.0
 0
VERTEX
 8
PARTS
 10
  1.4700
 20
  1.8500
 30
0.0
 0
SEQEND
 8
PARTS
 0
POLYLINE
 8
PARTS
 66
1
 10
0.0
 20
0.0
 30
0.0
 0
VERTEX
 8
PARTS
 10
  1.4700
 20
  1.8500
 30
0.0
 0
VERTEX
 8
PARTS
 10
  1.4900
 20
  1.8700
 30
0.0
 0
SEQEND
 8
PARTS
 0
POLYLINE
 8
PARTS
 66
1
 10
0.0
 20
0.0
 30
0.0
 0
VERTEX
 8
PARTS
 10
  1.4900
 20
  1.8700
 30
0.0
 0
VERTEX
 8
PARTS
 10
  1.4900
 20
  1.8300
 30
0.0
 0
SEQEND
 8
PARTS
 0
POLYLINE
 8
PARTS
 66
1
 10
0.0
 20
0.0
 30
0.0
 0
VERTEX
 8
PARTS
 10
  1.4900
 20
  1.8300
 30
0.0
 0
VERTEX
 8
PARTS
 10
  1.4500
 20
  1.8300
 30
0.0
 0
SEQEND
 8
PARTS
 0
POLYLINE
 8
PARTS
 66
1
 10
0.0
 20
0.0
 30
0.0
 0
VERTEX
 8
PARTS
 10
  1.4500
 20
  1.8300
 30
0.0
 0
VERTEX
 8
PARTS
 10
  1.4700
 20
  1.8500
 30
0.0
 0
SEQEND
 8
PARTS
 0
POLYLINE
 8
PARTS
 66
1
 10
0.0
 20
0.0
 30
0.0
 0
VERTEX
 8
PARTS
 10
  1.3900
 20
  1.8200
 30
0.0
 0
VERTEX
 8
PARTS
 10
  1.4300
 20
  1.7800
 30
0.0
 0
SEQEND
 8
PARTS
 0
POLYLINE
 8
PARTS
 66
1
 10
0.0
 20
0.0
 30
0.0
 0
VERTEX
 8
PARTS
 10
  1.4300
 20
  1.7800
 30
0.0
 0
VERTEX
 8
PARTS
 10
  1.4300
 20
  1.8100
 30
0.0
 0
SEQEND
 8
PARTS
 0
POLYLINE
 8
PARTS
 66
1
 10
0.0
 20
0.0
 30
0.0
 0
VERTEX
 8
PARTS
 10
  1.4300
 20
  1.8100
 30
0.0
 0
VERTEX
 8
PARTS
 10
  1.4700
 20
  1.7700
 30
0.0
 0
SEQEND
 8
PARTS
 0
POLYLINE
 8
PARTS
 66
1
 10
0.0
 20
0.0
 30
0.0
 0
VERTEX
 8
PARTS
 10
  1.4700
 20
  1.7700
 30
0.0
 0
VERTEX
 8
PARTS
 10
  1.4900
 20
  1.7900
 30
0.0
 0
SEQEND
 8
PARTS
 0
POLYLINE
 8
PARTS
 66
1
 10
0.0
 20
0.0
 30
0.0
 0
VERTEX
 8
PARTS
 10
  1.4900
 20
  1.7900
 30
0.0
 0
VERTEX
 8
PARTS
 10
  1.4900
 20
  1.7500
 30
0.0
 0
SEQEND
 8
PARTS
 0
POLYLINE
 8
PARTS
 66
1
 10
0.0
 20
0.0
 30
0.0
 0
VERTEX
 8
PARTS
 10
  1.4900
 20
  1.7500
 30
0.0
 0
VERTEX
 8
PARTS
 10
  1.4500
 20
  1.7500
 30
0.0
 0
SEQEND
 8
PARTS
 0
POLYLINE
 8
PARTS
 66
1
 10
0.0
 20
0.0
 30
0.0
 0
VERTEX
 8
PARTS
 10
  1.4500
 20
  1.7500
 30
0.0
 0
VERTEX
 8
PARTS
 10
  1.4700
 20
  1.7700
 30
0.0
 0
SEQEND
 8
PARTS
 0
POLYLINE
 8
PARTS
 66
1
 10
0.0
 20
0.0
 30
0.0
 0
VERTEX
 8
PARTS
 10
  1.6000
 20
  1.8000
 30
0.0
 0
VERTEX
 8
PARTS
 10
  1.5500
 20
  1.8000
 30
0.0
 0
SEQEND
 8
PARTS
 0
POLYLINE
 8
PARTS
 66
1
 10
0.0
 20
0.0
 30
0.0
 0
VERTEX
 8
PARTS
 10
  1.5500
 20
  1.8000
 30
0.0
 0
VERTEX
 8
PARTS
 10
  1.5500
 20
  2.1000
 30
0.0
 0
SEQEND
 8
PARTS
 0
POLYLINE
 8
PARTS
 66
1
 10
0.0
 20
0.0
 30
0.0
 0
VERTEX
 8
PARTS
 10
  1.5500
 20
  2.1000
 30
0.0
 0
VERTEX
 8
PARTS
 10
  1.7000
 20
  2.1000
 30
0.0
 0
SEQEND
 8
PARTS
 0
POLYLINE
 8
PARTS
 66
1
 10
0.0
 20
0.0
 30
0.0
 0
VERTEX
 8
PARTS
 10
  1.7000
 20
  1.9000
 30
0.0
 0
VERTEX
 8
PARTS
 10
  1.6000
 20
  1.8000
 30
0.0
 0
SEQEND
 8
PARTS
 0
POLYLINE
 8
PARTS
 66
1
 10
0.0
 20
0.0
 30
0.0
 0
VERTEX
 8
PARTS
 10
  1.6000
 20
  1.8000
 30
0.0
 0
VERTEX
 8
PARTS
 10
  1.6700
 20
  1.7300
 30
0.0
 0
SEQEND
 8
PARTS
 0
POLYLINE
 8
PARTS
 66
1
 10
0.0
 20
0.0
 30
0.0
 0
VERTEX
 8
PARTS
 10
  1.6000
 20
  1.7000
 30
0.0
 0
VERTEX
 8
PARTS
 10
  1.6000
 20
  1.9000
 30
0.0
 0
SEQEND
 8
PARTS
 0
TEXT
 8
PARTTEXT
 10
  5.2500
 20
  6.6086
 30
0.0
 40
  0.0514
 1
JP4
 0
TEXT
 8
PARTTEXT
 10
  5.2000
 20
  5.5186
 30
0.0
 40
  0.0514
 1
PORT F
 0
CIRCLE
 8
PARTS
 10
  5.1700
 20
  6.5000
 30
0.0
 40
  0.0300
 0
LINE
 8
PARTS
 10
  4.9000
 20
  6.5000
 30
0.0
 11
  5.1400
 21
  6.5000
 31
0.0
 0
TEXT
 8
PARTS
 10
  5.2900
 20
  6.4750
 30
0.0
 40
  0.0500
 1
1
 0
TEXT
 8
PARTS
 10
  5.1400
 20
  6.5300
 30
0.0
 40
  0.0500
 1

 0
CIRCLE
 8
PARTS
 10
  5.1700
 20
  6.4000
 30
0.0
 40
  0.0300
 0
LINE
 8
PARTS
 10
  4.9000
 20
  6.4000
 30
0.0
 11
  5.1400
 21
  6.4000
 31
0.0
 0
TEXT
 8
PARTS
 10
  5.2900
 20
  6.3750
 30
0.0
 40
  0.0500
 1
2
 0
TEXT
 8
PARTS
 10
  5.1400
 20
  6.4300
 30
0.0
 40
  0.0500
 1

 0
CIRCLE
 8
PARTS
 10
  5.1700
 20
  6.3000
 30
0.0
 40
  0.0300
 0
LINE
 8
PARTS
 10
  4.9000
 20
  6.3000
 30
0.0
 11
  5.1400
 21
  6.3000
 31
0.0
 0
TEXT
 8
PARTS
 10
  5.2900
 20
  6.2750
 30
0.0
 40
  0.0500
 1
3
 0
TEXT
 8
PARTS
 10
  5.1400
 20
  6.3300
 30
0.0
 40
  0.0500
 1

 0
CIRCLE
 8
PARTS
 10
  5.1700
 20
  6.2000
 30
0.0
 40
  0.0300
 0
LINE
 8
PARTS
 10
  4.9000
 20
  6.2000
 30
0.0
 11
  5.1400
 21
  6.2000
 31
0.0
 0
TEXT
 8
PARTS
 10
  5.2900
 20
  6.1750
 30
0.0
 40
  0.0500
 1
4
 0
TEXT
 8
PARTS
 10
  5.1400
 20
  6.2300
 30
0.0
 40
  0.0500
 1

 0
CIRCLE
 8
PARTS
 10
  5.1700
 20
  6.1000
 30
0.0
 40
  0.0300
 0
LINE
 8
PARTS
 10
  4.9000
 20
  6.1000
 30
0.0
 11
  5.1400
 21
  6.1000
 31
0.0
 0
TEXT
 8
PARTS
 10
  5.2900
 20
  6.0750
 30
0.0
 40
  0.0500
 1
5
 0
TEXT
 8
PARTS
 10
  5.1400
 20
  6.1300
 30
0.0
 40
  0.0500
 1

 0
CIRCLE
 8
PARTS
 10
  5.1700
 20
  6.0000
 30
0.0
 40
  0.0300
 0
LINE
 8
PARTS
 10
  4.9000
 20
  6.0000
 30
0.0
 11
  5.1400
 21
  6.0000
 31
0.0
 0
TEXT
 8
PARTS
 10
  5.2900
 20
  5.9750
 30
0.0
 40
  0.0500
 1
6
 0
TEXT
 8
PARTS
 10
  5.1400
 20
  6.0300
 30
0.0
 40
  0.0500
 1

 0
CIRCLE
 8
PARTS
 10
  5.1700
 20
  5.9000
 30
0.0
 40
  0.0300
 0
LINE
 8
PARTS
 10
  4.9000
 20
  5.9000
 30
0.0
 11
  5.1400
 21
  5.9000
 31
0.0
 0
TEXT
 8
PARTS
 10
  5.2900
 20
  5.8750
 30
0.0
 40
  0.0500
 1
7
 0
TEXT
 8
PARTS
 10
  5.1400
 20
  5.9300
 30
0.0
 40
  0.0500
 1

 0
CIRCLE
 8
PARTS
 10
  5.1700
 20
  5.8000
 30
0.0
 40
  0.0300
 0
LINE
 8
PARTS
 10
  4.9000
 20
  5.8000
 30
0.0
 11
  5.1400
 21
  5.8000
 31
0.0
 0
TEXT
 8
PARTS
 10
  5.2900
 20
  5.7750
 30
0.0
 40
  0.0500
 1
8
 0
TEXT
 8
PARTS
 10
  5.1400
 20
  5.8300
 30
0.0
 40
  0.0500
 1

 0
POLYLINE
 8
PARTS
 66
1
 70
1
 10
0.0
 20
0.0
 30
0.0
 0
VERTEX
 8
PARTS
 10
  5.2000
 20
  6.6000
 30
0.0
 0
VERTEX
 8
PARTS
 10
  5.5000
 20
  6.6000
 30
0.0
 0
VERTEX
 8
PARTS
 10
  5.5000
 20
  5.7000
 30
0.0
 0
VERTEX
 8
PARTS
 10
  5.2000
 20
  5.7000
 30
0.0
 0
SEQEND
 8
PARTS
 0
TEXT
 8
PARTTEXT
 10
  0.6000
 20
  0.7186
 30
0.0
 40
  0.0514
 1
R21
 0
TEXT
 8
PARTTEXT
 10
  0.8000
 20
  0.7186
 30
0.0
 40
  0.0514
 1
330
 0
LINE
 8
PARTS
 10
  0.5000
 20
  0.6000
 30
0.0
 11
  0.6000
 21
  0.6000
 31
0.0
 0
LINE
 8
PARTS
 10
  1.0000
 20
  0.6000
 30
0.0
 11
  0.9000
 21
  0.6000
 31
0.0
 0
POLYLINE
 8
PARTS
 66
1
 10
0.0
 20
0.0
 30
0.0
 0
VERTEX
 8
PARTS
 10
  0.6000
 20
  0.6000
 30
0.0
 0
VERTEX
 8
PARTS
 10
  0.6300
 20
  0.6300
 30
0.0
 0
SEQEND
 8
PARTS
 0
POLYLINE
 8
PARTS
 66
1
 10
0.0
 20
0.0
 30
0.0
 0
VERTEX
 8
PARTS
 10
  0.6300
 20
  0.6300
 30
0.0
 0
VERTEX
 8
PARTS
 10
  0.6900
 20
  0.5700
 30
0.0
 0
SEQEND
 8
PARTS
 0
POLYLINE
 8
PARTS
 66
1
 10
0.0
 20
0.0
 30
0.0
 0
VERTEX
 8
PARTS
 10
  0.6900
 20
  0.5700
 30
0.0
 0
VERTEX
 8
PARTS
 10
  0.7500
 20
  0.6300
 30
0.0
 0
SEQEND
 8
PARTS
 0
POLYLINE
 8
PARTS
 66
1
 10
0.0
 20
0.0
 30
0.0
 0
VERTEX
 8
PARTS
 10
  0.7500
 20
  0.6300
 30
0.0
 0
VERTEX
 8
PARTS
 10
  0.8100
 20
  0.5700
 30
0.0
 0
SEQEND
 8
PARTS
 0
POLYLINE
 8
PARTS
 66
1
 10
0.0
 20
0.0
 30
0.0
 0
VERTEX
 8
PARTS
 10
  0.8100
 20
  0.5700
 30
0.0
 0
VERTEX
 8
PARTS
 10
  0.8700
 20
  0.6300
 30
0.0
 0
SEQEND
 8
PARTS
 0
POLYLINE
 8
PARTS
 66
1
 10
0.0
 20
0.0
 30
0.0
 0
VERTEX
 8
PARTS
 10
  0.8700
 20
  0.6300
 30
0.0
 0
VERTEX
 8
PARTS
 10
  0.9000
 20
  0.6000
 30
0.0
 0
SEQEND
 8
PARTS
 0
TEXT
 8
PARTTEXT
 10
  1.9000
 20
  0.8186
 30
0.0
 40
  0.0514
 1
R20
 0
TEXT
 8
PARTTEXT
 10
  2.1000
 20
  0.8186
 30
0.0
 40
  0.0514
 1
1k
 0
LINE
 8
PARTS
 10
  1.8000
 20
  0.7000
 30
0.0
 11
  1.9000
 21
  0.7000
 31
0.0
 0
LINE
 8
PARTS
 10
  2.3000
 20
  0.7000
 30
0.0
 11
  2.2000
 21
  0.7000
 31
0.0
 0
POLYLINE
 8
PARTS
 66
1
 10
0.0
 20
0.0
 30
0.0
 0
VERTEX
 8
PARTS
 10
  1.9000
 20
  0.7000
 30
0.0
 0
VERTEX
 8
PARTS
 10
  1.9300
 20
  0.7300
 30
0.0
 0
SEQEND
 8
PARTS
 0
POLYLINE
 8
PARTS
 66
1
 10
0.0
 20
0.0
 30
0.0
 0
VERTEX
 8
PARTS
 10
  1.9300
 20
  0.7300
 30
0.0
 0
VERTEX
 8
PARTS
 10
  1.9900
 20
  0.6700
 30
0.0
 0
SEQEND
 8
PARTS
 0
POLYLINE
 8
PARTS
 66
1
 10
0.0
 20
0.0
 30
0.0
 0
VERTEX
 8
PARTS
 10
  1.9900
 20
  0.6700
 30
0.0
 0
VERTEX
 8
PARTS
 10
  2.0500
 20
  0.7300
 30
0.0
 0
SEQEND
 8
PARTS
 0
POLYLINE
 8
PARTS
 66
1
 10
0.0
 20
0.0
 30
0.0
 0
VERTEX
 8
PARTS
 10
  2.0500
 20
  0.7300
 30
0.0
 0
VERTEX
 8
PARTS
 10
  2.1100
 20
  0.6700
 30
0.0
 0
SEQEND
 8
PARTS
 0
POLYLINE
 8
PARTS
 66
1
 10
0.0
 20
0.0
 30
0.0
 0
VERTEX
 8
PARTS
 10
  2.1100
 20
  0.6700
 30
0.0
 0
VERTEX
 8
PARTS
 10
  2.1700
 20
  0.7300
 30
0.0
 0
SEQEND
 8
PARTS
 0
POLYLINE
 8
PARTS
 66
1
 10
0.0
 20
0.0
 30
0.0
 0
VERTEX
 8
PARTS
 10
  2.1700
 20
  0.7300
 30
0.0
 0
VERTEX
 8
PARTS
 10
  2.2000
 20
  0.7000
 30
0.0
 0
SEQEND
 8
PARTS
 0
TEXT
 8
PARTTEXT
 10
  6.6000
 20
  3.6186
 30
0.0
 40
  0.0514
 1
R15
 0
TEXT
 8
PARTTEXT
 10
  6.6000
 20
  3.5186
 30
0.0
 40
  0.0514
 1
820
 0
LINE
 8
PARTS
 10
  6.5000
 20
  3.8000
 30
0.0
 11
  6.5000
 21
  3.7000
 31
0.0
 0
LINE
 8
PARTS
 10
  6.5000
 20
  3.3000
 30
0.0
 11
  6.5000
 21
  3.4000
 31
0.0
 0
POLYLINE
 8
PARTS
 66
1
 10
0.0
 20
0.0
 30
0.0
 0
VERTEX
 8
PARTS
 10
  6.5000
 20
  3.7000
 30
0.0
 0
VERTEX
 8
PARTS
 10
  6.5300
 20
  3.6700
 30
0.0
 0
SEQEND
 8
PARTS
 0
POLYLINE
 8
PARTS
 66
1
 10
0.0
 20
0.0
 30
0.0
 0
VERTEX
 8
PARTS
 10
  6.5300
 20
  3.6700
 30
0.0
 0
VERTEX
 8
PARTS
 10
  6.4700
 20
  3.6100
 30
0.0
 0
SEQEND
 8
PARTS
 0
POLYLINE
 8
PARTS
 66
1
 10
0.0
 20
0.0
 30
0.0
 0
VERTEX
 8
PARTS
 10
  6.4700
 20
  3.6100
 30
0.0
 0
VERTEX
 8
PARTS
 10
  6.5300
 20
  3.5500
 30
0.0
 0
SEQEND
 8
PARTS
 0
POLYLINE
 8
PARTS
 66
1
 10
0.0
 20
0.0
 30
0.0
 0
VERTEX
 8
PARTS
 10
  6.5300
 20
  3.5500
 30
0.0
 0
VERTEX
 8
PARTS
 10
  6.4700
 20
  3.4900
 30
0.0
 0
SEQEND
 8
PARTS
 0
POLYLINE
 8
PARTS
 66
1
 10
0.0
 20
0.0
 30
0.0
 0
VERTEX
 8
PARTS
 10
  6.4700
 20
  3.4900
 30
0.0
 0
VERTEX
 8
PARTS
 10
  6.5300
 20
  3.4300
 30
0.0
 0
SEQEND
 8
PARTS
 0
POLYLINE
 8
PARTS
 66
1
 10
0.0
 20
0.0
 30
0.0
 0
VERTEX
 8
PARTS
 10
  6.5300
 20
  3.4300
 30
0.0
 0
VERTEX
 8
PARTS
 10
  6.5000
 20
  3.4000
 30
0.0
 0
SEQEND
 8
PARTS
 0
TEXT
 8
PARTTEXT
 10
 12.8000
 20
  2.0186
 30
0.0
 40
  0.0514
 1
J4
 0
TEXT
 8
PARTTEXT
 10
 12.7000
 20
  1.6186
 30
0.0
 40
  0.0514
 1
CON5
 0
LINE
 8
PARTS
 10
 13.1000
 20
  1.9000
 30
0.0
 11
 13.0000
 21
  1.9000
 31
0.0
 0
TEXT
 8
PARTS
 10
 12.8700
 20
  1.8750
 30
0.0
 40
  0.0500
 1
1
 0
TEXT
 8
PARTS
 10
 13.0600
 20
  1.9300
 30
0.0
 40
  0.0500
 1

 0
LINE
 8
PARTS
 10
 13.1000
 20
  1.8000
 30
0.0
 11
 13.0000
 21
  1.8000
 31
0.0
 0
TEXT
 8
PARTS
 10
 12.8700
 20
  1.7750
 30
0.0
 40
  0.0500
 1
2
 0
TEXT
 8
PARTS
 10
 13.0600
 20
  1.8300
 30
0.0
 40
  0.0500
 1

 0
POLYLINE
 8
PARTS
 66
1
 70
1
 10
0.0
 20
0.0
 30
0.0
 0
VERTEX
 8
PARTS
 10
 13.0000
 20
  2.0000
 30
0.0
 0
VERTEX
 8
PARTS
 10
 12.8000
 20
  2.0000
 30
0.0
 0
VERTEX
 8
PARTS
 10
 12.8000
 20
  1.7000
 30
0.0
 0
VERTEX
 8
PARTS
 10
 13.0000
 20
  1.7000
 30
0.0
 0
SEQEND
 8
PARTS
 0
TEXT
 8
PARTTEXT
 10
  1.2000
 20
  1.2186
 30
0.0
 40
  0.0514
 1
U17
 0
TEXT
 8
PARTTEXT
 10
  1.4000
 20
  1.2186
 30
0.0
 40
  0.0514
 1
4N35
 0
LINE
 8
PARTS
 10
  1.0000
 20
  1.1000
 30
0.0
 11
  1.1000
 21
  1.1000
 31
0.0
 0
TEXT
 8
PARTS
 10
  1.0000
 20
  1.1300
 30
0.0
 40
  0.0500
 1
1
 0
LINE
 8
PARTS
 10
  1.8000
 20
  1.1000
 30
0.0
 11
  1.7000
 21
  1.1000
 31
0.0
 0
TEXT
 8
PARTS
 10
  1.7600
 20
  1.1300
 30
0.0
 40
  0.0500
 1
6
 0
LINE
 8
PARTS
 10
  1.0000
 20
  0.6000
 30
0.0
 11
  1.1000
 21
  0.6000
 31
0.0
 0
TEXT
 8
PARTS
 10
  1.0000
 20
  0.6300
 30
0.0
 40
  0.0500
 1
2
 0
LINE
 8
PARTS
 10
  1.8000
 20
  0.9000
 30
0.0
 11
  1.7000
 21
  0.9000
 31
0.0
 0
TEXT
 8
PARTS
 10
  1.7600
 20
  0.9300
 30
0.0
 40
  0.0500
 1
5
 0
LINE
 8
PARTS
 10
  1.8000
 20
  0.7000
 30
0.0
 11
  1.7000
 21
  0.7000
 31
0.0
 0
TEXT
 8
PARTS
 10
  1.7600
 20
  0.7300
 30
0.0
 40
  0.0500
 1
4
 0
POLYLINE
 8
PARTS
 66
1
 70
1
 10
0.0
 20
0.0
 30
0.0
 0
VERTEX
 8
PARTS
 10
  1.6700
 20
  0.7300
 30
0.0
 0
VERTEX
 8
PARTS
 10
  1.7000
 20
  0.7600
 30
0.0
 0
VERTEX
 8
PARTS
 10
  1.7000
 20
  0.7000
 30
0.0
 0
VERTEX
 8
PARTS
 10
  1.6400
 20
  0.7000
 30
0.0
 0
VERTEX
 8
PARTS
 10
  1.6700
 20
  0.7300
 30
0.0
 0
SEQEND
 8
PARTS
 0
POLYLINE
 8
PARTS
 66
1
 70
1
 10
0.0
 20
0.0
 30
0.0
 0
VERTEX
 8
PARTS
 10
  1.1500
 20
  0.9000
 30
0.0
 0
VERTEX
 8
PARTS
 10
  1.2500
 20
  0.9000
 30
0.0
 0
VERTEX
 8
PARTS
 10
  1.2000
 20
  0.8000
 30
0.0
 0
VERTEX
 8
PARTS
 10
  1.1500
 20
  0.9000
 30
0.0
 0
SEQEND
 8
PARTS
 0
POLYLINE
 8
PARTS
 66
1
 10
0.0
 20
0.0
 30
0.0
 0
VERTEX
 8
PARTS
 10
  1.1000
 20
  1.1000
 30
0.0
 0
VERTEX
 8
PARTS
 10
  1.2000
 20
  1.1000
 30
0.0
 0
SEQEND
 8
PARTS
 0
POLYLINE
 8
PARTS
 66
1
 10
0.0
 20
0.0
 30
0.0
 0
VERTEX
 8
PARTS
 10
  1.2000
 20
  1.1000
 30
0.0
 0
VERTEX
 8
PARTS
 10
  1.2000
 20
  0.9000
 30
0.0
 0
SEQEND
 8
PARTS
 0
POLYLINE
 8
PARTS
 66
1
 10
0.0
 20
0.0
 30
0.0
 0
VERTEX
 8
PARTS
 10
  1.1500
 20
  0.8000
 30
0.0
 0
VERTEX
 8
PARTS
 10
  1.2500
 20
  0.8000
 30
0.0
 0
SEQEND
 8
PARTS
 0
POLYLINE
 8
PARTS
 66
1
 10
0.0
 20
0.0
 30
0.0
 0
VERTEX
 8
PARTS
 10
  1.2000
 20
  0.8000
 30
0.0
 0
VERTEX
 8
PARTS
 10
  1.2000
 20
  0.6000
 30
0.0
 0
SEQEND
 8
PARTS
 0
POLYLINE
 8
PARTS
 66
1
 10
0.0
 20
0.0
 30
0.0
 0
VERTEX
 8
PARTS
 10
  1.2000
 20
  0.6000
 30
0.0
 0
VERTEX
 8
PARTS
 10
  1.1000
 20
  0.6000
 30
0.0
 0
SEQEND
 8
PARTS
 0
POLYLINE
 8
PARTS
 66
1
 10
0.0
 20
0.0
 30
0.0
 0
VERTEX
 8
PARTS
 10
  1.3900
 20
  0.9000
 30
0.0
 0
VERTEX
 8
PARTS
 10
  1.4300
 20
  0.8600
 30
0.0
 0
SEQEND
 8
PARTS
 0
POLYLINE
 8
PARTS
 66
1
 10
0.0
 20
0.0
 30
0.0
 0
VERTEX
 8
PARTS
 10
  1.4300
 20
  0.8600
 30
0.0
 0
VERTEX
 8
PARTS
 10
  1.4300
 20
  0.8900
 30
0.0
 0
SEQEND
 8
PARTS
 0
POLYLINE
 8
PARTS
 66
1
 10
0.0
 20
0.0
 30
0.0
 0
VERTEX
 8
PARTS
 10
  1.4300
 20
  0.8900
 30
0.0
 0
VERTEX
 8
PARTS
 10
  1.4700
 20
  0.8500
 30
0.0
 0
SEQEND
 8
PARTS
 0
POLYLINE
 8
PARTS
 66
1
 10
0.0
 20
0.0
 30
0.0
 0
VERTEX
 8
PARTS
 10
  1.4700
 20
  0.8500
 30
0.0
 0
VERTEX
 8
PARTS
 10
  1.4900
 20
  0.8700
 30
0.0
 0
SEQEND
 8
PARTS
 0
POLYLINE
 8
PARTS
 66
1
 10
0.0
 20
0.0
 30
0.0
 0
VERTEX
 8
PARTS
 10
  1.4900
 20
  0.8700
 30
0.0
 0
VERTEX
 8
PARTS
 10
  1.4900
 20
  0.8300
 30
0.0
 0
SEQEND
 8
PARTS
 0
POLYLINE
 8
PARTS
 66
1
 10
0.0
 20
0.0
 30
0.0
 0
VERTEX
 8
PARTS
 10
  1.4900
 20
  0.8300
 30
0.0
 0
VERTEX
 8
PARTS
 10
  1.4500
 20
  0.8300
 30
0.0
 0
SEQEND
 8
PARTS
 0
POLYLINE
 8
PARTS
 66
1
 10
0.0
 20
0.0
 30
0.0
 0
VERTEX
 8
PARTS
 10
  1.4500
 20
  0.8300
 30
0.0
 0
VERTEX
 8
PARTS
 10
  1.4700
 20
  0.8500
 30
0.0
 0
SEQEND
 8
PARTS
 0
POLYLINE
 8
PARTS
 66
1
 10
0.0
 20
0.0
 30
0.0
 0
VERTEX
 8
PARTS
 10
  1.3900
 20
  0.8200
 30
0.0
 0
VERTEX
 8
PARTS
 10
  1.4300
 20
  0.7800
 30
0.0
 0
SEQEND
 8
PARTS
 0
POLYLINE
 8
PARTS
 66
1
 10
0.0
 20
0.0
 30
0.0
 0
VERTEX
 8
PARTS
 10
  1.4300
 20
  0.7800
 30
0.0
 0
VERTEX
 8
PARTS
 10
  1.4300
 20
  0.8100
 30
0.0
 0
SEQEND
 8
PARTS
 0
POLYLINE
 8
PARTS
 66
1
 10
0.0
 20
0.0
 30
0.0
 0
VERTEX
 8
PARTS
 10
  1.4300
 20
  0.8100
 30
0.0
 0
VERTEX
 8
PARTS
 10
  1.4700
 20
  0.7700
 30
0.0
 0
SEQEND
 8
PARTS
 0
POLYLINE
 8
PARTS
 66
1
 10
0.0
 20
0.0
 30
0.0
 0
VERTEX
 8
PARTS
 10
  1.4700
 20
  0.7700
 30
0.0
 0
VERTEX
 8
PARTS
 10
  1.4900
 20
  0.7900
 30
0.0
 0
SEQEND
 8
PARTS
 0
POLYLINE
 8
PARTS
 66
1
 10
0.0
 20
0.0
 30
0.0
 0
VERTEX
 8
PARTS
 10
  1.4900
 20
  0.7900
 30
0.0
 0
VERTEX
 8
PARTS
 10
  1.4900
 20
  0.7500
 30
0.0
 0
SEQEND
 8
PARTS
 0
POLYLINE
 8
PARTS
 66
1
 10
0.0
 20
0.0
 30
0.0
 0
VERTEX
 8
PARTS
 10
  1.4900
 20
  0.7500
 30
0.0
 0
VERTEX
 8
PARTS
 10
  1.4500
 20
  0.7500
 30
0.0
 0
SEQEND
 8
PARTS
 0
POLYLINE
 8
PARTS
 66
1
 10
0.0
 20
0.0
 30
0.0
 0
VERTEX
 8
PARTS
 10
  1.4500
 20
  0.7500
 30
0.0
 0
VERTEX
 8
PARTS
 10
  1.4700
 20
  0.7700
 30
0.0
 0
SEQEND
 8
PARTS
 0
POLYLINE
 8
PARTS
 66
1
 10
0.0
 20
0.0
 30
0.0
 0
VERTEX
 8
PARTS
 10
  1.6000
 20
  0.8000
 30
0.0
 0
VERTEX
 8
PARTS
 10
  1.5500
 20
  0.8000
 30
0.0
 0
SEQEND
 8
PARTS
 0
POLYLINE
 8
PARTS
 66
1
 10
0.0
 20
0.0
 30
0.0
 0
VERTEX
 8
PARTS
 10
  1.5500
 20
  0.8000
 30
0.0
 0
VERTEX
 8
PARTS
 10
  1.5500
 20
  1.1000
 30
0.0
 0
SEQEND
 8
PARTS
 0
POLYLINE
 8
PARTS
 66
1
 10
0.0
 20
0.0
 30
0.0
 0
VERTEX
 8
PARTS
 10
  1.5500
 20
  1.1000
 30
0.0
 0
VERTEX
 8
PARTS
 10
  1.7000
 20
  1.1000
 30
0.0
 0
SEQEND
 8
PARTS
 0
POLYLINE
 8
PARTS
 66
1
 10
0.0
 20
0.0
 30
0.0
 0
VERTEX
 8
PARTS
 10
  1.7000
 20
  0.9000
 30
0.0
 0
VERTEX
 8
PARTS
 10
  1.6000
 20
  0.8000
 30
0.0
 0
SEQEND
 8
PARTS
 0
POLYLINE
 8
PARTS
 66
1
 10
0.0
 20
0.0
 30
0.0
 0
VERTEX
 8
PARTS
 10
  1.6000
 20
  0.8000
 30
0.0
 0
VERTEX
 8
PARTS
 10
  1.6700
 20
  0.7300
 30
0.0
 0
SEQEND
 8
PARTS
 0
POLYLINE
 8
PARTS
 66
1
 10
0.0
 20
0.0
 30
0.0
 0
VERTEX
 8
PARTS
 10
  1.6000
 20
  0.7000
 30
0.0
 0
VERTEX
 8
PARTS
 10
  1.6000
 20
  0.9000
 30
0.0
 0
SEQEND
 8
PARTS
 0
TEXT
 8
PARTTEXT
 10
 11.6500
 20
  4.6186
 30
0.0
 40
  0.0514
 1
C4
 0
TEXT
 8
PARTTEXT
 10
 11.6500
 20
  4.4886
 30
0.0
 40
  0.0514
 1
.1uF
 0
LINE
 8
PARTS
 10
 12.0000
 20
  4.8000
 30
0.0
 11
 12.0000
 21
  4.7000
 31
0.0
 0
TEXT
 8
PARTS
 10
 11.9700
 20
  4.7600
 30
0.0
 40
  0.0500
 50
 90.0000
 1

 0
LINE
 8
PARTS
 10
 12.0000
 20
  4.5000
 30
0.0
 11
 12.0000
 21
  4.6000
 31
0.0
 0
TEXT
 8
PARTS
 10
 11.9700
 20
  4.4800
 30
0.0
 40
  0.0500
 50
 90.0000
 1

 0
POLYLINE
 8
PARTS
 66
1
 10
0.0
 20
0.0
 30
0.0
 0
VERTEX
 8
PARTS
 10
 11.9000
 20
  4.7000
 30
0.0
 0
VERTEX
 8
PARTS
 10
 12.1000
 20
  4.7000
 30
0.0
 0
SEQEND
 8
PARTS
 0
POLYLINE
 8
PARTS
 66
1
 10
0.0
 20
0.0
 30
0.0
 0
VERTEX
 8
PARTS
 10
 12.0000
 20
  4.6600
 30
0.0
 0
VERTEX
 8
PARTS
 10
 12.0000
 20
  4.6000
 30
0.0
 0
SEQEND
 8
PARTS
 0
POLYLINE
 8
PARTS
 66
1
 10
0.0
 20
0.0
 30
0.0
 0
VERTEX
 8
PARTS
 10
 12.1000
 20
  4.6300
 30
0.0
 42
  0.1654
 0
VERTEX
 8
PARTS
 10
 12.0000
 20
  4.6600
 30
0.0
 0
SEQEND
 8
PARTS
 0
POLYLINE
 8
PARTS
 66
1
 10
0.0
 20
0.0
 30
0.0
 0
VERTEX
 8
PARTS
 10
 12.0000
 20
  4.6600
 30
0.0
 42
  0.1654
 0
VERTEX
 8
PARTS
 10
 11.9000
 20
  4.6300
 30
0.0
 0
SEQEND
 8
PARTS
 0
TEXT
 8
PARTTEXT
 10
  7.5000
 20
  4.1186
 30
0.0
 40
  0.0514
 1
J6
 0
TEXT
 8
PARTTEXT
 10
  7.1000
 20
  3.8186
 30
0.0
 40
  0.0514
 1
RECEIVER SWITCH
 0
LINE
 8
PARTS
 10
  7.1000
 20
  4.0000
 30
0.0
 11
  7.4000
 21
  4.0000
 31
0.0
 0
TEXT
 8
PARTS
 10
  7.3000
 20
  4.0300
 30
0.0
 40
  0.0500
 1
1
 0
LINE
 8
PARTS
 10
  8.0000
 20
  4.0000
 30
0.0
 11
  7.7000
 21
  4.0000
 31
0.0
 0
TEXT
 8
PARTS
 10
  7.7600
 20
  4.0300
 30
0.0
 40
  0.0500
 1
2
 0
POLYLINE
 8
PARTS
 66
1
 10
0.0
 20
0.0
 30
0.0
 0
VERTEX
 8
PARTS
 10
  7.4000
 20
  4.0000
 30
0.0
 0
VERTEX
 8
PARTS
 10
  7.4500
 20
  4.0000
 30
0.0
 0
SEQEND
 8
PARTS
 0
POLYLINE
 8
PARTS
 66
1
 10
0.0
 20
0.0
 30
0.0
 0
VERTEX
 8
PARTS
 10
  7.6000
 20
  4.0000
 30
0.0
 0
VERTEX
 8
PARTS
 10
  7.7000
 20
  4.0000
 30
0.0
 0
SEQEND
 8
PARTS
 0
POLYLINE
 8
PARTS
 66
1
 70
1
 10
0.0
 20
0.0
 30
0.0
 0
VERTEX
 8
PARTS
 10
  7.4800
 20
  4.0000
 30
0.0
 42
  0.0985
 0
VERTEX
 8
PARTS
 10
  7.4777
 20
  4.0115
 30
0.0
 42
  0.0985
 0
VERTEX
 8
PARTS
 10
  7.4712
 20
  4.0212
 30
0.0
 42
  0.0985
 0
VERTEX
 8
PARTS
 10
  7.4615
 20
  4.0277
 30
0.0
 42
  0.0985
 0
VERTEX
 8
PARTS
 10
  7.4500
 20
  4.0300
 30
0.0
 42
  0.0985
 0
VERTEX
 8
PARTS
 10
  7.4385
 20
  4.0277
 30
0.0
 42
  0.0985
 0
VERTEX
 8
PARTS
 10
  7.4288
 20
  4.0212
 30
0.0
 42
  0.0985
 0
VERTEX
 8
PARTS
 10
  7.4223
 20
  4.0115
 30
0.0
 42
  0.0985
 0
VERTEX
 8
PARTS
 10
  7.4200
 20
  4.0000
 30
0.0
 42
  0.0985
 0
VERTEX
 8
PARTS
 10
  7.4223
 20
  3.9885
 30
0.0
 42
  0.0985
 0
VERTEX
 8
PARTS
 10
  7.4288
 20
  3.9788
 30
0.0
 42
  0.0985
 0
VERTEX
 8
PARTS
 10
  7.4385
 20
  3.9723
 30
0.0
 42
  0.0985
 0
VERTEX
 8
PARTS
 10
  7.4500
 20
  3.9700
 30
0.0
 42
  0.0985
 0
VERTEX
 8
PARTS
 10
  7.4615
 20
  3.9723
 30
0.0
 42
  0.0985
 0
VERTEX
 8
PARTS
 10
  7.4712
 20
  3.9788
 30
0.0
 42
  0.0985
 0
VERTEX
 8
PARTS
 10
  7.4777
 20
  3.9885
 30
0.0
 42
  0.0985
 0
SEQEND
 8
PARTS
 0
POLYLINE
 8
PARTS
 66
1
 70
1
 10
0.0
 20
0.0
 30
0.0
 0
VERTEX
 8
PARTS
 10
  7.6300
 20
  4.0000
 30
0.0
 42
  0.0985
 0
VERTEX
 8
PARTS
 10
  7.6277
 20
  4.0115
 30
0.0
 42
  0.0985
 0
VERTEX
 8
PARTS
 10
  7.6212
 20
  4.0212
 30
0.0
 42
  0.0985
 0
VERTEX
 8
PARTS
 10
  7.6115
 20
  4.0277
 30
0.0
 42
  0.0985
 0
VERTEX
 8
PARTS
 10
  7.6000
 20
  4.0300
 30
0.0
 42
  0.0985
 0
VERTEX
 8
PARTS
 10
  7.5885
 20
  4.0277
 30
0.0
 42
  0.0985
 0
VERTEX
 8
PARTS
 10
  7.5788
 20
  4.0212
 30
0.0
 42
  0.0985
 0
VERTEX
 8
PARTS
 10
  7.5723
 20
  4.0115
 30
0.0
 42
  0.0985
 0
VERTEX
 8
PARTS
 10
  7.5700
 20
  4.0000
 30
0.0
 42
  0.0985
 0
VERTEX
 8
PARTS
 10
  7.5723
 20
  3.9885
 30
0.0
 42
  0.0985
 0
VERTEX
 8
PARTS
 10
  7.5788
 20
  3.9788
 30
0.0
 42
  0.0985
 0
VERTEX
 8
PARTS
 10
  7.5885
 20
  3.9723
 30
0.0
 42
  0.0985
 0
VERTEX
 8
PARTS
 10
  7.6000
 20
  3.9700
 30
0.0
 42
  0.0985
 0
VERTEX
 8
PARTS
 10
  7.6115
 20
  3.9723
 30
0.0
 42
  0.0985
 0
VERTEX
 8
PARTS
 10
  7.6212
 20
  3.9788
 30
0.0
 42
  0.0985
 0
VERTEX
 8
PARTS
 10
  7.6277
 20
  3.9885
 30
0.0
 42
  0.0985
 0
SEQEND
 8
PARTS
 0
POLYLINE
 8
PARTS
 66
1
 70
1
 10
0.0
 20
0.0
 30
0.0
 0
VERTEX
 8
PARTS
 10
  7.4000
 20
  4.1000
 30
0.0
 0
VERTEX
 8
PARTS
 10
  7.7000
 20
  4.1000
 30
0.0
 0
VERTEX
 8
PARTS
 10
  7.7000
 20
  3.9000
 30
0.0
 0
VERTEX
 8
PARTS
 10
  7.4000
 20
  3.9000
 30
0.0
 0
SEQEND
 8
PARTS
 0
TEXT
 8
PARTTEXT
 10
  7.2700
 20
  6.4586
 30
0.0
 40
  0.0514
 1
U7
 0
TEXT
 8
PARTTEXT
 10
  7.3300
 20
  4.3786
 30
0.0
 40
  0.0514
 1
Receiver
 0
LINE
 8
PARTS
 10
  6.9000
 20
  6.3000
 30
0.0
 11
  7.2000
 21
  6.3000
 31
0.0
 0
TEXT
 8
PARTS
 10
  7.2900
 20
  6.2750
 30
0.0
 40
  0.0500
 1
ANT
 0
TEXT
 8
PARTS
 10
  7.1000
 20
  6.3300
 30
0.0
 40
  0.0500
 1
1
 0
LINE
 8
PARTS
 10
  6.9000
 20
  6.2000
 30
0.0
 11
  7.2000
 21
  6.2000
 31
0.0
 0
TEXT
 8
PARTS
 10
  7.2900
 20
  6.1750
 30
0.0
 40
  0.0500
 1
GP GND
 0
TEXT
 8
PARTS
 10
  7.1000
 20
  6.2300
 30
0.0
 40
  0.0500
 1
2
 0
LINE
 8
PARTS
 10
  6.9000
 20
  6.1000
 30
0.0
 11
  7.2000
 21
  6.1000
 31
0.0
 0
TEXT
 8
PARTS
 10
  7.2900
 20
  6.0750
 30
0.0
 40
  0.0500
 1
GND
 0
TEXT
 8
PARTS
 10
  7.1000
 20
  6.1300
 30
0.0
 40
  0.0500
 1
3
 0
LINE
 8
PARTS
 10
  6.9000
 20
  6.0000
 30
0.0
 11
  7.2000
 21
  6.0000
 31
0.0
 0
TEXT
 8
PARTS
 10
  7.2900
 20
  5.9750
 30
0.0
 40
  0.0500
 1
GND
 0
TEXT
 8
PARTS
 10
  7.1000
 20
  6.0300
 30
0.0
 40
  0.0500
 1
4
 0
LINE
 8
PARTS
 10
  6.9000
 20
  5.9000
 30
0.0
 11
  7.2000
 21
  5.9000
 31
0.0
 0
TEXT
 8
PARTS
 10
  7.2900
 20
  5.8750
 30
0.0
 40
  0.0500
 1
GND
 0
TEXT
 8
PARTS
 10
  7.1000
 20
  5.9300
 30
0.0
 40
  0.0500
 1
5
 0
LINE
 8
PARTS
 10
  6.9000
 20
  5.8000
 30
0.0
 11
  7.2000
 21
  5.8000
 31
0.0
 0
TEXT
 8
PARTS
 10
  7.2900
 20
  5.7750
 30
0.0
 40
  0.0500
 1
GND
 0
TEXT
 8
PARTS
 10
  7.1000
 20
  5.8300
 30
0.0
 40
  0.0500
 1
6
 0
LINE
 8
PARTS
 10
  6.9000
 20
  5.7000
 30
0.0
 11
  7.2000
 21
  5.7000
 31
0.0
 0
TEXT
 8
PARTS
 10
  7.2900
 20
  5.6750
 30
0.0
 40
  0.0500
 1
GND
 0
TEXT
 8
PARTS
 10
  7.1000
 20
  5.7300
 30
0.0
 40
  0.0500
 1
7
 0
LINE
 8
PARTS
 10
  6.9000
 20
  5.6000
 30
0.0
 11
  7.2000
 21
  5.6000
 31
0.0
 0
TEXT
 8
PARTS
 10
  7.2900
 20
  5.5750
 30
0.0
 40
  0.0500
 1
GND
 0
TEXT
 8
PARTS
 10
  7.1000
 20
  5.6300
 30
0.0
 40
  0.0500
 1
8
 0
LINE
 8
PARTS
 10
  6.9000
 20
  5.5000
 30
0.0
 11
  7.2000
 21
  5.5000
 31
0.0
 0
TEXT
 8
PARTS
 10
  7.2900
 20
  5.4750
 30
0.0
 40
  0.0500
 1
NC
 0
TEXT
 8
PARTS
 10
  7.1000
 20
  5.5300
 30
0.0
 40
  0.0500
 1
9
 0
LINE
 8
PARTS
 10
  6.9000
 20
  5.4000
 30
0.0
 11
  7.2000
 21
  5.4000
 31
0.0
 0
TEXT
 8
PARTS
 10
  7.2900
 20
  5.3750
 30
0.0
 40
  0.0500
 1
CH 0
 0
TEXT
 8
PARTS
 10
  7.0600
 20
  5.4300
 30
0.0
 40
  0.0500
 1
10
 0
LINE
 8
PARTS
 10
  6.9000
 20
  5.3000
 30
0.0
 11
  7.2000
 21
  5.3000
 31
0.0
 0
TEXT
 8
PARTS
 10
  7.2900
 20
  5.2750
 30
0.0
 40
  0.0500
 1
CH 1
 0
TEXT
 8
PARTS
 10
  7.0600
 20
  5.3300
 30
0.0
 40
  0.0500
 1
11
 0
LINE
 8
PARTS
 10
  6.9000
 20
  5.2000
 30
0.0
 11
  7.2000
 21
  5.2000
 31
0.0
 0
TEXT
 8
PARTS
 10
  7.2900
 20
  5.1750
 30
0.0
 40
  0.0500
 1
CH 2
 0
TEXT
 8
PARTS
 10
  7.0600
 20
  5.2300
 30
0.0
 40
  0.0500
 1
12
 0
LINE
 8
PARTS
 10
  6.9000
 20
  5.1000
 30
0.0
 11
  7.2000
 21
  5.1000
 31
0.0
 0
TEXT
 8
PARTS
 10
  7.2900
 20
  5.0750
 30
0.0
 40
  0.0500
 1
PWR DN
 0
TEXT
 8
PARTS
 10
  7.0600
 20
  5.1300
 30
0.0
 40
  0.0500
 1
13
 0
LINE
 8
PARTS
 10
  6.9000
 20
  5.0000
 30
0.0
 11
  7.2000
 21
  5.0000
 31
0.0
 0
TEXT
 8
PARTS
 10
  7.2900
 20
  4.9750
 30
0.0
 40
  0.0500
 1
RSSI
 0
TEXT
 8
PARTS
 10
  7.0600
 20
  5.0300
 30
0.0
 40
  0.0500
 1
14
 0
LINE
 8
PARTS
 10
  6.9000
 20
  4.9000
 30
0.0
 11
  7.2000
 21
  4.9000
 31
0.0
 0
TEXT
 8
PARTS
 10
  7.2900
 20
  4.8750
 30
0.0
 40
  0.0500
 1
GND
 0
TEXT
 8
PARTS
 10
  7.0600
 20
  4.9300
 30
0.0
 40
  0.0500
 1
15
 0
LINE
 8
PARTS
 10
  6.9000
 20
  4.8000
 30
0.0
 11
  7.2000
 21
  4.8000
 31
0.0
 0
TEXT
 8
PARTS
 10
  7.2900
 20
  4.7750
 30
0.0
 40
  0.0500
 1
Vcc
 0
TEXT
 8
PARTS
 10
  7.0600
 20
  4.8300
 30
0.0
 40
  0.0500
 1
16
 0
LINE
 8
PARTS
 10
  6.9000
 20
  4.7000
 30
0.0
 11
  7.2000
 21
  4.7000
 31
0.0
 0
TEXT
 8
PARTS
 10
  7.2900
 20
  4.6750
 30
0.0
 40
  0.0500
 1
ANA OUT
 0
TEXT
 8
PARTS
 10
  7.0600
 20
  4.7300
 30
0.0
 40
  0.0500
 1
17
 0
LINE
 8
PARTS
 10
  6.9000
 20
  4.6000
 30
0.0
 11
  7.2000
 21
  4.6000
 31
0.0
 0
TEXT
 8
PARTS
 10
  7.2900
 20
  4.5750
 30
0.0
 40
  0.0500
 1
DATA OUT
 0
TEXT
 8
PARTS
 10
  7.0600
 20
  4.6300
 30
0.0
 40
  0.0500
 1
18
 0
POLYLINE
 8
PARTS
 66
1
 70
1
 10
0.0
 20
0.0
 30
0.0
 0
VERTEX
 8
PARTS
 10
  7.2000
 20
  6.4000
 30
0.0
 0
VERTEX
 8
PARTS
 10
  7.8000
 20
  6.4000
 30
0.0
 0
VERTEX
 8
PARTS
 10
  7.8000
 20
  4.5000
 30
0.0
 0
VERTEX
 8
PARTS
 10
  7.2000
 20
  4.5000
 30
0.0
 0
SEQEND
 8
PARTS
 0
POLYLINE
 8
WIRE
 66
1
 10
0.0
 20
0.0
 30
0.0
 0
VERTEX
 8
WIRE
 10
 11.6000
 20
  6.2000
 30
0.0
 0
VERTEX
 8
WIRE
 10
 11.6000
 20
  5.6000
 30
0.0
 0
SEQEND
 8
WIRE
 0
POLYLINE
 8
WIRE
 66
1
 10
0.0
 20
0.0
 30
0.0
 0
VERTEX
 8
WIRE
 10
 12.7000
 20
  6.7000
 30
0.0
 0
VERTEX
 8
WIRE
 10
 13.0000
 20
  6.7000
 30
0.0
 0
SEQEND
 8
WIRE
 0
POLYLINE
 8
WIRE
 66
1
 10
0.0
 20
0.0
 30
0.0
 0
VERTEX
 8
WIRE
 10
 13.0000
 20
  6.7000
 30
0.0
 0
VERTEX
 8
WIRE
 10
 13.0000
 20
  6.3000
 30
0.0
 0
SEQEND
 8
WIRE
 0
POLYLINE
 8
WIRE
 66
1
 70
1
 10
0.0
 20
0.0
 30
0.0
 40
  0.0200
 41
  0.0200
 0
VERTEX
 8
WIRE
 10
 12.9900
 20
  6.3000
 30
0.0
 42
1.0
 0
VERTEX
 8
WIRE
 10
 13.0100
 20
  6.3000
 30
0.0
 42
1.0
 0
SEQEND
 8
WIRE
 0
POLYLINE
 8
WIRE
 66
1
 10
0.0
 20
0.0
 30
0.0
 0
VERTEX
 8
WIRE
 10
 11.6000
 20
  8.1000
 30
0.0
 0
VERTEX
 8
WIRE
 10
 11.9000
 20
  8.1000
 30
0.0
 0
SEQEND
 8
WIRE
 0
TEXT
 8
WIRETEXT
 10
 11.6000
 20
  8.1400
 30
0.0
 40
  0.0514
 1
RESET
 0
POLYLINE
 8
WIRE
 66
1
 10
0.0
 20
0.0
 30
0.0
 0
VERTEX
 8
WIRE
 10
 12.7000
 20
  6.3000
 30
0.0
 0
VERTEX
 8
WIRE
 10
 13.0000
 20
  6.3000
 30
0.0
 0
SEQEND
 8
WIRE
 0
POLYLINE
 8
WIRE
 66
1
 10
0.0
 20
0.0
 30
0.0
 0
VERTEX
 8
WIRE
 10
 14.8000
 20
  4.9000
 30
0.0
 0
VERTEX
 8
WIRE
 10
 14.8000
 20
  4.8000
 30
0.0
 0
SEQEND
 8
WIRE
 0
POLYLINE
 8
WIRE
 66
1
 10
0.0
 20
0.0
 30
0.0
 0
VERTEX
 8
WIRE
 10
 11.8000
 20
  6.0000
 30
0.0
 0
VERTEX
 8
WIRE
 10
 11.8000
 20
  5.8000
 30
0.0
 0
SEQEND
 8
WIRE
 0
POLYLINE
 8
WIRE
 66
1
 10
0.0
 20
0.0
 30
0.0
 0
VERTEX
 8
WIRE
 10
 13.0000
 20
  6.3000
 30
0.0
 0
VERTEX
 8
WIRE
 10
 13.0000
 20
  5.6000
 30
0.0
 0
SEQEND
 8
WIRE
 0
POLYLINE
 8
WIRE
 66
1
 10
0.0
 20
0.0
 30
0.0
 0
VERTEX
 8
WIRE
 10
 11.6000
 20
  5.6000
 30
0.0
 0
VERTEX
 8
WIRE
 10
 13.0000
 20
  5.6000
 30
0.0
 0
SEQEND
 8
WIRE
 0
POLYLINE
 8
WIRE
 66
1
 10
0.0
 20
0.0
 30
0.0
 0
VERTEX
 8
WIRE
 10
 11.6000
 20
  6.2000
 30
0.0
 0
VERTEX
 8
WIRE
 10
 11.8000
 20
  6.2000
 30
0.0
 0
SEQEND
 8
WIRE
 0
POLYLINE
 8
WIRE
 66
1
 10
0.0
 20
0.0
 30
0.0
 0
VERTEX
 8
WIRE
 10
 14.7000
 20
  4.8000
 30
0.0
 0
VERTEX
 8
WIRE
 10
 14.8000
 20
  4.8000
 30
0.0
 0
SEQEND
 8
WIRE
 0
POLYLINE
 8
WIRE
 66
1
 10
0.0
 20
0.0
 30
0.0
 0
VERTEX
 8
WIRE
 10
 13.6000
 20
  5.1000
 30
0.0
 0
VERTEX
 8
WIRE
 10
 13.6000
 20
  4.9000
 30
0.0
 0
SEQEND
 8
WIRE
 0
POLYLINE
 8
WIRE
 66
1
 10
0.0
 20
0.0
 30
0.0
 0
VERTEX
 8
WIRE
 10
 13.5000
 20
  4.9000
 30
0.0
 0
VERTEX
 8
WIRE
 10
 13.6000
 20
  4.9000
 30
0.0
 0
SEQEND
 8
WIRE
 0
POLYLINE
 8
WIRE
 66
1
 70
1
 10
0.0
 20
0.0
 30
0.0
 40
  0.0200
 41
  0.0200
 0
VERTEX
 8
WIRE
 10
 13.5900
 20
  4.9000
 30
0.0
 42
1.0
 0
VERTEX
 8
WIRE
 10
 13.6100
 20
  4.9000
 30
0.0
 42
1.0
 0
SEQEND
 8
WIRE
 0
POLYLINE
 8
WIRE
 66
1
 10
0.0
 20
0.0
 30
0.0
 0
VERTEX
 8
WIRE
 10
  1.0000
 20
  9.4000
 30
0.0
 0
VERTEX
 8
WIRE
 10
  0.6000
 20
  9.4000
 30
0.0
 0
SEQEND
 8
WIRE
 0
TEXT
 8
WIRETEXT
 10
  0.6000
 20
  9.4300
 30
0.0
 40
  0.0514
 1
TPU0
 0
POLYLINE
 8
WIRE
 66
1
 10
0.0
 20
0.0
 30
0.0
 0
VERTEX
 8
WIRE
 10
  1.0000
 20
  8.6000
 30
0.0
 0
VERTEX
 8
WIRE
 10
  0.6000
 20
  8.6000
 30
0.0
 0
SEQEND
 8
WIRE
 0
TEXT
 8
WIRETEXT
 10
  0.6000
 20
  8.6300
 30
0.0
 40
  0.0514
 1
TPU1
 0
POLYLINE
 8
WIRE
 66
1
 10
0.0
 20
0.0
 30
0.0
 0
VERTEX
 8
WIRE
 10
  1.0000
 20
  7.8000
 30
0.0
 0
VERTEX
 8
WIRE
 10
  0.6000
 20
  7.8000
 30
0.0
 0
SEQEND
 8
WIRE
 0
TEXT
 8
WIRETEXT
 10
  0.6000
 20
  7.8300
 30
0.0
 40
  0.0514
 1
TPU2
 0
POLYLINE
 8
WIRE
 66
1
 10
0.0
 20
0.0
 30
0.0
 0
VERTEX
 8
WIRE
 10
  1.0000
 20
  6.2000
 30
0.0
 0
VERTEX
 8
WIRE
 10
  0.6000
 20
  6.2000
 30
0.0
 0
SEQEND
 8
WIRE
 0
TEXT
 8
WIRETEXT
 10
  0.6000
 20
  6.2300
 30
0.0
 40
  0.0514
 1
TPU4
 0
POLYLINE
 8
WIRE
 66
1
 10
0.0
 20
0.0
 30
0.0
 0
VERTEX
 8
WIRE
 10
  1.0000
 20
  7.0000
 30
0.0
 0
VERTEX
 8
WIRE
 10
  0.6000
 20
  7.0000
 30
0.0
 0
SEQEND
 8
WIRE
 0
TEXT
 8
WIRETEXT
 10
  0.6000
 20
  7.0300
 30
0.0
 40
  0.0514
 1
TPU3
 0
POLYLINE
 8
WIRE
 66
1
 10
0.0
 20
0.0
 30
0.0
 0
VERTEX
 8
WIRE
 10
  1.0000
 20
  5.0000
 30
0.0
 0
VERTEX
 8
WIRE
 10
  0.6000
 20
  5.0000
 30
0.0
 0
SEQEND
 8
WIRE
 0
TEXT
 8
WIRETEXT
 10
  0.6000
 20
  5.0300
 30
0.0
 40
  0.0514
 1
MOSI
 0
POLYLINE
 8
WIRE
 66
1
 10
0.0
 20
0.0
 30
0.0
 0
VERTEX
 8
WIRE
 10
  1.0000
 20
  4.2000
 30
0.0
 0
VERTEX
 8
WIRE
 10
  0.6000
 20
  4.2000
 30
0.0
 0
SEQEND
 8
WIRE
 0
TEXT
 8
WIRETEXT
 10
  0.6000
 20
  4.2300
 30
0.0
 40
  0.0514
 1
MISO
 0
POLYLINE
 8
WIRE
 66
1
 10
0.0
 20
0.0
 30
0.0
 0
VERTEX
 8
WIRE
 10
  1.8000
 20
  1.9000
 30
0.0
 0
VERTEX
 8
WIRE
 10
  2.6000
 20
  1.9000
 30
0.0
 0
SEQEND
 8
WIRE
 0
POLYLINE
 8
WIRE
 66
1
 10
0.0
 20
0.0
 30
0.0
 0
VERTEX
 8
WIRE
 10
  1.8000
 20
  0.9000
 30
0.0
 0
VERTEX
 8
WIRE
 10
  2.6000
 20
  0.9000
 30
0.0
 0
SEQEND
 8
WIRE
 0
POLYLINE
 8
WIRE
 66
1
 10
0.0
 20
0.0
 30
0.0
 0
VERTEX
 8
WIRE
 10
  1.0000
 20
  3.1000
 30
0.0
 0
VERTEX
 8
WIRE
 10
  0.6000
 20
  3.1000
 30
0.0
 0
SEQEND
 8
WIRE
 0
TEXT
 8
WIRETEXT
 10
  0.6000
 20
  3.1300
 30
0.0
 40
  0.0514
 1
SCK
 0
POLYLINE
 8
WIRE
 66
1
 10
0.0
 20
0.0
 30
0.0
 0
VERTEX
 8
WIRE
 10
  1.0000
 20
  2.1000
 30
0.0
 0
VERTEX
 8
WIRE
 10
  0.6000
 20
  2.1000
 30
0.0
 0
SEQEND
 8
WIRE
 0
TEXT
 8
WIRETEXT
 10
  0.6000
 20
  2.1300
 30
0.0
 40
  0.0514
 1
PCS0
 0
POLYLINE
 8
WIRE
 66
1
 10
0.0
 20
0.0
 30
0.0
 0
VERTEX
 8
WIRE
 10
  3.7000
 20
  6.5000
 30
0.0
 0
VERTEX
 8
WIRE
 10
  3.5000
 20
  6.5000
 30
0.0
 0
SEQEND
 8
WIRE
 0
TEXT
 8
WIRETEXT
 10
  3.6000
 20
  6.5300
 30
0.0
 40
  0.0514
 1
A
 0
POLYLINE
 8
WIRE
 66
1
 10
0.0
 20
0.0
 30
0.0
 0
VERTEX
 8
WIRE
 10
  3.7000
 20
  6.4000
 30
0.0
 0
VERTEX
 8
WIRE
 10
  3.5000
 20
  6.4000
 30
0.0
 0
SEQEND
 8
WIRE
 0
TEXT
 8
WIRETEXT
 10
  3.6000
 20
  6.4300
 30
0.0
 40
  0.0514
 1
B
 0
POLYLINE
 8
WIRE
 66
1
 10
0.0
 20
0.0
 30
0.0
 0
VERTEX
 8
WIRE
 10
  3.7000
 20
  6.3000
 30
0.0
 0
VERTEX
 8
WIRE
 10
  3.5000
 20
  6.3000
 30
0.0
 0
SEQEND
 8
WIRE
 0
TEXT
 8
WIRETEXT
 10
  3.6000
 20
  6.3300
 30
0.0
 40
  0.0514
 1
C
 0
POLYLINE
 8
WIRE
 66
1
 10
0.0
 20
0.0
 30
0.0
 0
VERTEX
 8
WIRE
 10
  3.7000
 20
  6.2000
 30
0.0
 0
VERTEX
 8
WIRE
 10
  3.5000
 20
  6.2000
 30
0.0
 0
SEQEND
 8
WIRE
 0
TEXT
 8
WIRETEXT
 10
  3.6000
 20
  6.2300
 30
0.0
 40
  0.0514
 1
D
 0
POLYLINE
 8
WIRE
 66
1
 10
0.0
 20
0.0
 30
0.0
 0
VERTEX
 8
WIRE
 10
  3.7000
 20
  6.1000
 30
0.0
 0
VERTEX
 8
WIRE
 10
  3.5000
 20
  6.1000
 30
0.0
 0
SEQEND
 8
WIRE
 0
TEXT
 8
WIRETEXT
 10
  3.6000
 20
  6.1300
 30
0.0
 40
  0.0514
 1
E
 0
POLYLINE
 8
WIRE
 66
1
 10
0.0
 20
0.0
 30
0.0
 0
VERTEX
 8
WIRE
 10
  3.7000
 20
  6.0000
 30
0.0
 0
VERTEX
 8
WIRE
 10
  3.5000
 20
  6.0000
 30
0.0
 0
SEQEND
 8
WIRE
 0
TEXT
 8
WIRETEXT
 10
  3.6000
 20
  6.0300
 30
0.0
 40
  0.0514
 1
F
 0
POLYLINE
 8
WIRE
 66
1
 10
0.0
 20
0.0
 30
0.0
 0
VERTEX
 8
WIRE
 10
  3.7000
 20
  5.9000
 30
0.0
 0
VERTEX
 8
WIRE
 10
  3.5000
 20
  5.9000
 30
0.0
 0
SEQEND
 8
WIRE
 0
TEXT
 8
WIRETEXT
 10
  3.6000
 20
  5.9300
 30
0.0
 40
  0.0514
 1
G
 0
POLYLINE
 8
WIRE
 66
1
 10
0.0
 20
0.0
 30
0.0
 0
VERTEX
 8
WIRE
 10
  3.7000
 20
  5.8000
 30
0.0
 0
VERTEX
 8
WIRE
 10
  3.5000
 20
  5.8000
 30
0.0
 0
SEQEND
 8
WIRE
 0
TEXT
 8
WIRETEXT
 10
  3.6000
 20
  5.8300
 30
0.0
 40
  0.0514
 1
H
 0
POLYLINE
 8
WIRE
 66
1
 10
0.0
 20
0.0
 30
0.0
 0
VERTEX
 8
WIRE
 10
  4.9000
 20
  6.5000
 30
0.0
 0
VERTEX
 8
WIRE
 10
  4.7000
 20
  6.5000
 30
0.0
 0
SEQEND
 8
WIRE
 0
TEXT
 8
WIRETEXT
 10
  4.8000
 20
  6.5300
 30
0.0
 40
  0.0514
 1
I
 0
POLYLINE
 8
WIRE
 66
1
 10
0.0
 20
0.0
 30
0.0
 0
VERTEX
 8
WIRE
 10
  4.9000
 20
  6.4000
 30
0.0
 0
VERTEX
 8
WIRE
 10
  4.7000
 20
  6.4000
 30
0.0
 0
SEQEND
 8
WIRE
 0
TEXT
 8
WIRETEXT
 10
  4.8000
 20
  6.4300
 30
0.0
 40
  0.0514
 1
J
 0
POLYLINE
 8
WIRE
 66
1
 10
0.0
 20
0.0
 30
0.0
 0
VERTEX
 8
WIRE
 10
  4.9000
 20
  6.3000
 30
0.0
 0
VERTEX
 8
WIRE
 10
  4.7000
 20
  6.3000
 30
0.0
 0
SEQEND
 8
WIRE
 0
TEXT
 8
WIRETEXT
 10
  4.8000
 20
  6.3300
 30
0.0
 40
  0.0514
 1
K
 0
POLYLINE
 8
WIRE
 66
1
 10
0.0
 20
0.0
 30
0.0
 0
VERTEX
 8
WIRE
 10
  4.9000
 20
  6.2000
 30
0.0
 0
VERTEX
 8
WIRE
 10
  4.7000
 20
  6.2000
 30
0.0
 0
SEQEND
 8
WIRE
 0
TEXT
 8
WIRETEXT
 10
  4.8000
 20
  6.2300
 30
0.0
 40
  0.0514
 1
L
 0
POLYLINE
 8
WIRE
 66
1
 10
0.0
 20
0.0
 30
0.0
 0
VERTEX
 8
WIRE
 10
  4.9000
 20
  6.1000
 30
0.0
 0
VERTEX
 8
WIRE
 10
  4.7000
 20
  6.1000
 30
0.0
 0
SEQEND
 8
WIRE
 0
TEXT
 8
WIRETEXT
 10
  4.8000
 20
  6.1300
 30
0.0
 40
  0.0514
 1
M
 0
POLYLINE
 8
WIRE
 66
1
 10
0.0
 20
0.0
 30
0.0
 0
VERTEX
 8
WIRE
 10
  4.9000
 20
  6.0000
 30
0.0
 0
VERTEX
 8
WIRE
 10
  4.7000
 20
  6.0000
 30
0.0
 0
SEQEND
 8
WIRE
 0
TEXT
 8
WIRETEXT
 10
  4.8000
 20
  6.0300
 30
0.0
 40
  0.0514
 1
N
 0
POLYLINE
 8
WIRE
 66
1
 10
0.0
 20
0.0
 30
0.0
 0
VERTEX
 8
WIRE
 10
  4.9000
 20
  5.9000
 30
0.0
 0
VERTEX
 8
WIRE
 10
  4.7000
 20
  5.9000
 30
0.0
 0
SEQEND
 8
WIRE
 0
TEXT
 8
WIRETEXT
 10
  4.8000
 20
  5.9300
 30
0.0
 40
  0.0514
 1
O
 0
POLYLINE
 8
WIRE
 66
1
 10
0.0
 20
0.0
 30
0.0
 0
VERTEX
 8
WIRE
 10
  4.9000
 20
  5.8000
 30
0.0
 0
VERTEX
 8
WIRE
 10
  4.7000
 20
  5.8000
 30
0.0
 0
SEQEND
 8
WIRE
 0
TEXT
 8
WIRETEXT
 10
  4.8000
 20
  5.8300
 30
0.0
 40
  0.0514
 1
P
 0
POLYLINE
 8
WIRE
 66
1
 10
0.0
 20
0.0
 30
0.0
 0
VERTEX
 8
WIRE
 10
  3.7000
 20
  8.0000
 30
0.0
 0
VERTEX
 8
WIRE
 10
  3.5000
 20
  8.0000
 30
0.0
 0
SEQEND
 8
WIRE
 0
TEXT
 8
WIRETEXT
 10
  3.6000
 20
  8.0300
 30
0.0
 40
  0.0514
 1
TPU7
 0
POLYLINE
 8
WIRE
 66
1
 10
0.0
 20
0.0
 30
0.0
 0
VERTEX
 8
WIRE
 10
  3.7000
 20
  7.9000
 30
0.0
 0
VERTEX
 8
WIRE
 10
  3.5000
 20
  7.9000
 30
0.0
 0
SEQEND
 8
WIRE
 0
TEXT
 8
WIRETEXT
 10
  3.6000
 20
  7.9300
 30
0.0
 40
  0.0514
 1
TPU6
 0
POLYLINE
 8
WIRE
 66
1
 10
0.0
 20
0.0
 30
0.0
 0
VERTEX
 8
WIRE
 10
  3.7000
 20
  7.8000
 30
0.0
 0
VERTEX
 8
WIRE
 10
  3.5000
 20
  7.8000
 30
0.0
 0
SEQEND
 8
WIRE
 0
TEXT
 8
WIRETEXT
 10
  3.6000
 20
  7.8300
 30
0.0
 40
  0.0514
 1
TPU5
 0
POLYLINE
 8
WIRE
 66
1
 10
0.0
 20
0.0
 30
0.0
 0
VERTEX
 8
WIRE
 10
  4.9000
 20
  8.0000
 30
0.0
 0
VERTEX
 8
WIRE
 10
  4.7000
 20
  8.0000
 30
0.0
 0
SEQEND
 8
WIRE
 0
TEXT
 8
WIRETEXT
 10
  4.8000
 20
  8.0300
 30
0.0
 40
  0.0514
 1
TPU15
 0
POLYLINE
 8
WIRE
 66
1
 10
0.0
 20
0.0
 30
0.0
 0
VERTEX
 8
WIRE
 10
  4.9000
 20
  7.9000
 30
0.0
 0
VERTEX
 8
WIRE
 10
  4.7000
 20
  7.9000
 30
0.0
 0
SEQEND
 8
WIRE
 0
TEXT
 8
WIRETEXT
 10
  4.8000
 20
  7.9300
 30
0.0
 40
  0.0514
 1
TPU14
 0
POLYLINE
 8
WIRE
 66
1
 10
0.0
 20
0.0
 30
0.0
 0
VERTEX
 8
WIRE
 10
  4.9000
 20
  7.8000
 30
0.0
 0
VERTEX
 8
WIRE
 10
  4.7000
 20
  7.8000
 30
0.0
 0
SEQEND
 8
WIRE
 0
TEXT
 8
WIRETEXT
 10
  4.8000
 20
  7.8300
 30
0.0
 40
  0.0514
 1
TPU13
 0
POLYLINE
 8
WIRE
 66
1
 10
0.0
 20
0.0
 30
0.0
 0
VERTEX
 8
WIRE
 10
  4.9000
 20
  7.7000
 30
0.0
 0
VERTEX
 8
WIRE
 10
  4.7000
 20
  7.7000
 30
0.0
 0
SEQEND
 8
WIRE
 0
TEXT
 8
WIRETEXT
 10
  4.8000
 20
  7.7300
 30
0.0
 40
  0.0514
 1
TPU12
 0
POLYLINE
 8
WIRE
 66
1
 10
0.0
 20
0.0
 30
0.0
 0
VERTEX
 8
WIRE
 10
  4.9000
 20
  7.6000
 30
0.0
 0
VERTEX
 8
WIRE
 10
  4.7000
 20
  7.6000
 30
0.0
 0
SEQEND
 8
WIRE
 0
TEXT
 8
WIRETEXT
 10
  4.8000
 20
  7.6300
 30
0.0
 40
  0.0514
 1
TPU11
 0
POLYLINE
 8
WIRE
 66
1
 10
0.0
 20
0.0
 30
0.0
 0
VERTEX
 8
WIRE
 10
  4.9000
 20
  7.5000
 30
0.0
 0
VERTEX
 8
WIRE
 10
  4.7000
 20
  7.5000
 30
0.0
 0
SEQEND
 8
WIRE
 0
TEXT
 8
WIRETEXT
 10
  4.8000
 20
  7.5300
 30
0.0
 40
  0.0514
 1
TPU10
 0
POLYLINE
 8
WIRE
 66
1
 10
0.0
 20
0.0
 30
0.0
 0
VERTEX
 8
WIRE
 10
  4.9000
 20
  7.4000
 30
0.0
 0
VERTEX
 8
WIRE
 10
  4.7000
 20
  7.4000
 30
0.0
 0
SEQEND
 8
WIRE
 0
TEXT
 8
WIRETEXT
 10
  4.8000
 20
  7.4300
 30
0.0
 40
  0.0514
 1
TPU9
 0
POLYLINE
 8
WIRE
 66
1
 10
0.0
 20
0.0
 30
0.0
 0
VERTEX
 8
WIRE
 10
  4.9000
 20
  7.3000
 30
0.0
 0
VERTEX
 8
WIRE
 10
  4.7000
 20
  7.3000
 30
0.0
 0
SEQEND
 8
WIRE
 0
TEXT
 8
WIRETEXT
 10
  4.8000
 20
  7.3300
 30
0.0
 40
  0.0514
 1
TPU8
 0
POLYLINE
 8
WIRE
 66
1
 10
0.0
 20
0.0
 30
0.0
 0
VERTEX
 8
WIRE
 10
  2.6000
 20
  0.9000
 30
0.0
 0
VERTEX
 8
WIRE
 10
  2.6000
 20
  1.0000
 30
0.0
 0
SEQEND
 8
WIRE
 0
POLYLINE
 8
WIRE
 66
1
 10
0.0
 20
0.0
 30
0.0
 0
VERTEX
 8
WIRE
 10
  0.6000
 20
  1.1000
 30
0.0
 0
VERTEX
 8
WIRE
 10
  1.0000
 20
  1.1000
 30
0.0
 0
SEQEND
 8
WIRE
 0
TEXT
 8
WIRETEXT
 10
  0.6000
 20
  1.1300
 30
0.0
 40
  0.0514
 1
PCS1
 0
POLYLINE
 8
WIRE
 66
1
 10
0.0
 20
0.0
 30
0.0
 0
VERTEX
 8
WIRE
 10
  3.6000
 20
  1.7000
 30
0.0
 0
VERTEX
 8
WIRE
 10
  4.1000
 20
  1.7000
 30
0.0
 0
SEQEND
 8
WIRE
 0
TEXT
 8
WIRETEXT
 10
  3.6000
 20
  1.7400
 30
0.0
 40
  0.0514
 1
RESET
 0
POLYLINE
 8
WIRE
 66
1
 10
0.0
 20
0.0
 30
0.0
 0
VERTEX
 8
WIRE
 10
  5.3000
 20
  1.7000
 30
0.0
 0
VERTEX
 8
WIRE
 10
  5.6000
 20
  1.7000
 30
0.0
 0
SEQEND
 8
WIRE
 0
TEXT
 8
WIRETEXT
 10
  5.3000
 20
  1.7400
 30
0.0
 40
  0.0514
 1
res_but
 0
POLYLINE
 8
WIRE
 66
1
 10
0.0
 20
0.0
 30
0.0
 0
VERTEX
 8
WIRE
 10
  6.6000
 20
  6.3000
 30
0.0
 0
VERTEX
 8
WIRE
 10
  6.9000
 20
  6.3000
 30
0.0
 0
SEQEND
 8
WIRE
 0
TEXT
 8
WIRETEXT
 10
  6.7000
 20
  6.3300
 30
0.0
 40
  0.0514
 1
ANT
 0
POLYLINE
 8
WIRE
 66
1
 10
0.0
 20
0.0
 30
0.0
 0
VERTEX
 8
WIRE
 10
 13.1000
 20
  1.9000
 30
0.0
 0
VERTEX
 8
WIRE
 10
 13.2000
 20
  1.9000
 30
0.0
 0
SEQEND
 8
WIRE
 0
POLYLINE
 8
WIRE
 66
1
 10
0.0
 20
0.0
 30
0.0
 0
VERTEX
 8
WIRE
 10
 13.2000
 20
  2.0000
 30
0.0
 0
VERTEX
 8
WIRE
 10
 13.2000
 20
  1.9000
 30
0.0
 0
SEQEND
 8
WIRE
 0
POLYLINE
 8
WIRE
 66
1
 10
0.0
 20
0.0
 30
0.0
 0
VERTEX
 8
WIRE
 10
 14.0000
 20
  2.0000
 30
0.0
 0
VERTEX
 8
WIRE
 10
 14.0000
 20
  1.9000
 30
0.0
 0
SEQEND
 8
WIRE
 0
POLYLINE
 8
WIRE
 66
1
 10
0.0
 20
0.0
 30
0.0
 0
VERTEX
 8
WIRE
 10
 13.9000
 20
  1.9000
 30
0.0
 0
VERTEX
 8
WIRE
 10
 14.0000
 20
  1.9000
 30
0.0
 0
SEQEND
 8
WIRE
 0
POLYLINE
 8
WIRE
 66
1
 10
0.0
 20
0.0
 30
0.0
 0
VERTEX
 8
WIRE
 10
  2.6000
 20
  1.9000
 30
0.0
 0
VERTEX
 8
WIRE
 10
  2.6000
 20
  2.0000
 30
0.0
 0
SEQEND
 8
WIRE
 0
POLYLINE
 8
WIRE
 66
1
 10
0.0
 20
0.0
 30
0.0
 0
VERTEX
 8
WIRE
 10
  1.8000
 20
  9.2000
 30
0.0
 0
VERTEX
 8
WIRE
 10
  2.6000
 20
  9.2000
 30
0.0
 0
SEQEND
 8
WIRE
 0
POLYLINE
 8
WIRE
 66
1
 10
0.0
 20
0.0
 30
0.0
 0
VERTEX
 8
WIRE
 10
  1.8000
 20
  4.8000
 30
0.0
 0
VERTEX
 8
WIRE
 10
  2.6000
 20
  4.8000
 30
0.0
 0
SEQEND
 8
WIRE
 0
POLYLINE
 8
WIRE
 66
1
 10
0.0
 20
0.0
 30
0.0
 0
VERTEX
 8
WIRE
 10
  1.8000
 20
  7.6000
 30
0.0
 0
VERTEX
 8
WIRE
 10
  2.6000
 20
  7.6000
 30
0.0
 0
SEQEND
 8
WIRE
 0
POLYLINE
 8
WIRE
 66
1
 10
0.0
 20
0.0
 30
0.0
 0
VERTEX
 8
WIRE
 10
  1.8000
 20
  6.4000
 30
0.0
 0
VERTEX
 8
WIRE
 10
  2.9000
 20
  6.4000
 30
0.0
 0
SEQEND
 8
WIRE
 0
TEXT
 8
WIRETEXT
 10
  2.3500
 20
  6.4300
 30
0.0
 40
  0.0514
 1
TPU3 - pwm
 0
POLYLINE
 8
WIRE
 66
1
 10
0.0
 20
0.0
 30
0.0
 0
VERTEX
 8
WIRE
 10
  2.6000
 20
  4.8000
 30
0.0
 0
VERTEX
 8
WIRE
 10
  2.6000
 20
  5.0000
 30
0.0
 0
SEQEND
 8
WIRE
 0
POLYLINE
 8
WIRE
 66
1
 10
0.0
 20
0.0
 30
0.0
 0
VERTEX
 8
WIRE
 10
  5.3000
 20
  3.9000
 30
0.0
 0
VERTEX
 8
WIRE
 10
  5.7000
 20
  3.9000
 30
0.0
 0
SEQEND
 8
WIRE
 0
TEXT
 8
WIRETEXT
 10
  5.4000
 20
  3.9300
 30
0.0
 40
  0.0514
 1
lightbulb
 0
POLYLINE
 8
WIRE
 66
1
 10
0.0
 20
0.0
 30
0.0
 0
VERTEX
 8
WIRE
 10
  1.8000
 20
  2.3000
 30
0.0
 0
VERTEX
 8
WIRE
 10
  2.9000
 20
  2.3000
 30
0.0
 0
SEQEND
 8
WIRE
 0
TEXT
 8
WIRETEXT
 10
  2.3500
 20
  2.3300
 30
0.0
 40
  0.0514
 1
mainarm_dir
 0
POLYLINE
 8
WIRE
 66
1
 10
0.0
 20
0.0
 30
0.0
 0
VERTEX
 8
WIRE
 10
  1.8000
 20
  6.0000
 30
0.0
 0
VERTEX
 8
WIRE
 10
  2.6000
 20
  6.0000
 30
0.0
 0
SEQEND
 8
WIRE
 0
POLYLINE
 8
WIRE
 66
1
 10
0.0
 20
0.0
 30
0.0
 0
VERTEX
 8
WIRE
 10
  1.8000
 20
  1.5000
 30
0.0
 0
VERTEX
 8
WIRE
 10
  2.9000
 20
  1.5000
 30
0.0
 0
SEQEND
 8
WIRE
 0
TEXT
 8
WIRETEXT
 10
  2.3500
 20
  1.5300
 30
0.0
 40
  0.0514
 1
lightbulb
 0
POLYLINE
 8
WIRE
 66
1
 10
0.0
 20
0.0
 30
0.0
 0
VERTEX
 8
WIRE
 10
 12.0000
 20
  3.5000
 30
0.0
 0
VERTEX
 8
WIRE
 10
 12.1000
 20
  3.5000
 30
0.0
 0
SEQEND
 8
WIRE
 0
POLYLINE
 8
WIRE
 66
1
 10
0.0
 20
0.0
 30
0.0
 0
VERTEX
 8
WIRE
 10
  1.8000
 20
  6.6000
 30
0.0
 0
VERTEX
 8
WIRE
 10
  1.8000
 20
  6.4000
 30
0.0
 0
SEQEND
 8
WIRE
 0
POLYLINE
 8
WIRE
 66
1
 70
1
 10
0.0
 20
0.0
 30
0.0
 40
  0.0200
 41
  0.0200
 0
VERTEX
 8
WIRE
 10
  1.7900
 20
  6.6000
 30
0.0
 42
1.0
 0
VERTEX
 8
WIRE
 10
  1.8100
 20
  6.6000
 30
0.0
 42
1.0
 0
SEQEND
 8
WIRE
 0
POLYLINE
 8
WIRE
 66
1
 10
0.0
 20
0.0
 30
0.0
 0
VERTEX
 8
WIRE
 10
  5.3000
 20
  4.0000
 30
0.0
 0
VERTEX
 8
WIRE
 10
  5.3000
 20
  4.3000
 30
0.0
 0
SEQEND
 8
WIRE
 0
POLYLINE
 8
WIRE
 66
1
 10
0.0
 20
0.0
 30
0.0
 0
VERTEX
 8
WIRE
 10
  4.0000
 20
  3.1000
 30
0.0
 0
VERTEX
 8
WIRE
 10
  4.0000
 20
  2.9000
 30
0.0
 0
SEQEND
 8
WIRE
 0
POLYLINE
 8
WIRE
 66
1
 10
0.0
 20
0.0
 30
0.0
 0
VERTEX
 8
WIRE
 10
  4.0000
 20
  3.2000
 30
0.0
 0
VERTEX
 8
WIRE
 10
  3.5000
 20
  3.2000
 30
0.0
 0
SEQEND
 8
WIRE
 0
TEXT
 8
WIRETEXT
 10
  3.5000
 20
  3.2300
 30
0.0
 40
  0.0514
 1
mainarm_dir
 0
POLYLINE
 8
WIRE
 66
1
 10
0.0
 20
0.0
 30
0.0
 0
VERTEX
 8
WIRE
 10
  4.0000
 20
  3.5000
 30
0.0
 0
VERTEX
 8
WIRE
 10
  3.5000
 20
  3.5000
 30
0.0
 0
SEQEND
 8
WIRE
 0
TEXT
 8
WIRETEXT
 10
  3.5000
 20
  3.5300
 30
0.0
 40
  0.0514
 1
TPU4 - pwm
 0
POLYLINE
 8
WIRE
 66
1
 10
0.0
 20
0.0
 30
0.0
 0
VERTEX
 8
WIRE
 10
  1.8000
 20
  8.4000
 30
0.0
 0
VERTEX
 8
WIRE
 10
  2.6000
 20
  8.4000
 30
0.0
 0
SEQEND
 8
WIRE
 0
POLYLINE
 8
WIRE
 66
1
 10
0.0
 20
0.0
 30
0.0
 0
VERTEX
 8
WIRE
 10
  4.0000
 20
  3.6000
 30
0.0
 0
VERTEX
 8
WIRE
 10
  3.5000
 20
  3.6000
 30
0.0
 0
SEQEND
 8
WIRE
 0
TEXT
 8
WIRETEXT
 10
  3.5000
 20
  3.6300
 30
0.0
 40
  0.0514
 1
TPU3 - pwm
 0
POLYLINE
 8
WIRE
 66
1
 10
0.0
 20
0.0
 30
0.0
 0
VERTEX
 8
WIRE
 10
  4.0000
 20
  3.7000
 30
0.0
 0
VERTEX
 8
WIRE
 10
  3.5000
 20
  3.7000
 30
0.0
 0
SEQEND
 8
WIRE
 0
TEXT
 8
WIRETEXT
 10
  3.5000
 20
  3.7300
 30
0.0
 40
  0.0514
 1
TPU2 - pwm
 0
POLYLINE
 8
WIRE
 66
1
 10
0.0
 20
0.0
 30
0.0
 0
VERTEX
 8
WIRE
 10
  1.8000
 20
  8.8000
 30
0.0
 0
VERTEX
 8
WIRE
 10
  2.9000
 20
  8.8000
 30
0.0
 0
SEQEND
 8
WIRE
 0
TEXT
 8
WIRETEXT
 10
  2.3500
 20
  8.8300
 30
0.0
 40
  0.0514
 1
TPU0 - pwm
 0
POLYLINE
 8
WIRE
 66
1
 10
0.0
 20
0.0
 30
0.0
 0
VERTEX
 8
WIRE
 10
 12.0000
 20
  3.6000
 30
0.0
 0
VERTEX
 8
WIRE
 10
 12.0000
 20
  3.5000
 30
0.0
 0
SEQEND
 8
WIRE
 0
POLYLINE
 8
WIRE
 66
1
 70
1
 10
0.0
 20
0.0
 30
0.0
 40
  0.0200
 41
  0.0200
 0
VERTEX
 8
WIRE
 10
 11.9900
 20
  3.5000
 30
0.0
 42
1.0
 0
VERTEX
 8
WIRE
 10
 12.0100
 20
  3.5000
 30
0.0
 42
1.0
 0
SEQEND
 8
WIRE
 0
POLYLINE
 8
WIRE
 66
1
 10
0.0
 20
0.0
 30
0.0
 0
VERTEX
 8
WIRE
 10
  1.8000
 20
  8.0000
 30
0.0
 0
VERTEX
 8
WIRE
 10
  2.9000
 20
  8.0000
 30
0.0
 0
SEQEND
 8
WIRE
 0
TEXT
 8
WIRETEXT
 10
  2.3500
 20
  8.0300
 30
0.0
 40
  0.0514
 1
TPU1 - pwm
 0
POLYLINE
 8
WIRE
 66
1
 10
0.0
 20
0.0
 30
0.0
 0
VERTEX
 8
WIRE
 10
  1.8000
 20
  7.2000
 30
0.0
 0
VERTEX
 8
WIRE
 10
  2.9000
 20
  7.2000
 30
0.0
 0
SEQEND
 8
WIRE
 0
TEXT
 8
WIRETEXT
 10
  2.3500
 20
  7.2300
 30
0.0
 40
  0.0514
 1
TPU2 - pwm
 0
POLYLINE
 8
WIRE
 66
1
 10
0.0
 20
0.0
 30
0.0
 0
VERTEX
 8
WIRE
 10
  2.6000
 20
  4.0000
 30
0.0
 0
VERTEX
 8
WIRE
 10
  2.6000
 20
  4.8000
 30
0.0
 0
SEQEND
 8
WIRE
 0
POLYLINE
 8
WIRE
 66
1
 70
1
 10
0.0
 20
0.0
 30
0.0
 40
  0.0200
 41
  0.0200
 0
VERTEX
 8
WIRE
 10
  2.5900
 20
  4.8000
 30
0.0
 42
1.0
 0
VERTEX
 8
WIRE
 10
  2.6100
 20
  4.8000
 30
0.0
 42
1.0
 0
SEQEND
 8
WIRE
 0
POLYLINE
 8
WIRE
 66
1
 10
0.0
 20
0.0
 30
0.0
 0
VERTEX
 8
WIRE
 10
  1.8000
 20
  1.7000
 30
0.0
 0
VERTEX
 8
WIRE
 10
  1.8000
 20
  1.5000
 30
0.0
 0
SEQEND
 8
WIRE
 0
POLYLINE
 8
WIRE
 66
1
 70
1
 10
0.0
 20
0.0
 30
0.0
 40
  0.0200
 41
  0.0200
 0
VERTEX
 8
WIRE
 10
  1.7900
 20
  1.7000
 30
0.0
 42
1.0
 0
VERTEX
 8
WIRE
 10
  1.8100
 20
  1.7000
 30
0.0
 42
1.0
 0
SEQEND
 8
WIRE
 0
POLYLINE
 8
WIRE
 66
1
 10
0.0
 20
0.0
 30
0.0
 0
VERTEX
 8
WIRE
 10
  1.8000
 20
  0.5000
 30
0.0
 0
VERTEX
 8
WIRE
 10
  2.9000
 20
  0.5000
 30
0.0
 0
SEQEND
 8
WIRE
 0
TEXT
 8
WIRETEXT
 10
  2.3500
 20
  0.5300
 30
0.0
 40
  0.0514
 1
ram
 0
POLYLINE
 8
WIRE
 66
1
 10
0.0
 20
0.0
 30
0.0
 0
VERTEX
 8
WIRE
 10
  1.8000
 20
  3.8000
 30
0.0
 0
VERTEX
 8
WIRE
 10
  1.8000
 20
  3.6000
 30
0.0
 0
SEQEND
 8
WIRE
 0
POLYLINE
 8
WIRE
 66
1
 70
1
 10
0.0
 20
0.0
 30
0.0
 40
  0.0200
 41
  0.0200
 0
VERTEX
 8
WIRE
 10
  1.7900
 20
  3.8000
 30
0.0
 42
1.0
 0
VERTEX
 8
WIRE
 10
  1.8100
 20
  3.8000
 30
0.0
 42
1.0
 0
SEQEND
 8
WIRE
 0
POLYLINE
 8
WIRE
 66
1
 10
0.0
 20
0.0
 30
0.0
 0
VERTEX
 8
WIRE
 10
  1.8000
 20
  7.4000
 30
0.0
 0
VERTEX
 8
WIRE
 10
  1.8000
 20
  7.2000
 30
0.0
 0
SEQEND
 8
WIRE
 0
POLYLINE
 8
WIRE
 66
1
 70
1
 10
0.0
 20
0.0
 30
0.0
 40
  0.0200
 41
  0.0200
 0
VERTEX
 8
WIRE
 10
  1.7900
 20
  7.4000
 30
0.0
 42
1.0
 0
VERTEX
 8
WIRE
 10
  1.8100
 20
  7.4000
 30
0.0
 42
1.0
 0
SEQEND
 8
WIRE
 0
POLYLINE
 8
WIRE
 66
1
 10
0.0
 20
0.0
 30
0.0
 0
VERTEX
 8
WIRE
 10
  2.6000
 20
  6.8000
 30
0.0
 0
VERTEX
 8
WIRE
 10
  2.6000
 20
  7.6000
 30
0.0
 0
SEQEND
 8
WIRE
 0
POLYLINE
 8
WIRE
 66
1
 70
1
 10
0.0
 20
0.0
 30
0.0
 40
  0.0200
 41
  0.0200
 0
VERTEX
 8
WIRE
 10
  2.5900
 20
  7.6000
 30
0.0
 42
1.0
 0
VERTEX
 8
WIRE
 10
  2.6100
 20
  7.6000
 30
0.0
 42
1.0
 0
SEQEND
 8
WIRE
 0
POLYLINE
 8
WIRE
 66
1
 10
0.0
 20
0.0
 30
0.0
 0
VERTEX
 8
WIRE
 10
  1.8000
 20
  4.4000
 30
0.0
 0
VERTEX
 8
WIRE
 10
  2.9000
 20
  4.4000
 30
0.0
 0
SEQEND
 8
WIRE
 0
TEXT
 8
WIRETEXT
 10
  2.3500
 20
  4.4300
 30
0.0
 40
  0.0514
 1
motor1_dir
 0
POLYLINE
 8
WIRE
 66
1
 10
0.0
 20
0.0
 30
0.0
 0
VERTEX
 8
WIRE
 10
 13.6000
 20
  3.7000
 30
0.0
 0
VERTEX
 8
WIRE
 10
 13.6000
 20
  3.5000
 30
0.0
 0
SEQEND
 8
WIRE
 0
POLYLINE
 8
WIRE
 66
1
 10
0.0
 20
0.0
 30
0.0
 0
VERTEX
 8
WIRE
 10
  2.6000
 20
  7.6000
 30
0.0
 0
VERTEX
 8
WIRE
 10
  2.6000
 20
  8.4000
 30
0.0
 0
SEQEND
 8
WIRE
 0
POLYLINE
 8
WIRE
 66
1
 70
1
 10
0.0
 20
0.0
 30
0.0
 40
  0.0200
 41
  0.0200
 0
VERTEX
 8
WIRE
 10
  2.5900
 20
  8.4000
 30
0.0
 42
1.0
 0
VERTEX
 8
WIRE
 10
  2.6100
 20
  8.4000
 30
0.0
 42
1.0
 0
SEQEND
 8
WIRE
 0
POLYLINE
 8
WIRE
 66
1
 10
0.0
 20
0.0
 30
0.0
 0
VERTEX
 8
WIRE
 10
  4.0000
 20
  3.8000
 30
0.0
 0
VERTEX
 8
WIRE
 10
  3.5000
 20
  3.8000
 30
0.0
 0
SEQEND
 8
WIRE
 0
TEXT
 8
WIRETEXT
 10
  3.5000
 20
  3.8300
 30
0.0
 40
  0.0514
 1
TPU1 - pwm
 0
POLYLINE
 8
WIRE
 66
1
 10
0.0
 20
0.0
 30
0.0
 0
VERTEX
 8
WIRE
 10
  1.8000
 20
  5.8000
 30
0.0
 0
VERTEX
 8
WIRE
 10
  1.8000
 20
  5.6000
 30
0.0
 0
SEQEND
 8
WIRE
 0
POLYLINE
 8
WIRE
 66
1
 70
1
 10
0.0
 20
0.0
 30
0.0
 40
  0.0200
 41
  0.0200
 0
VERTEX
 8
WIRE
 10
  1.7900
 20
  5.8000
 30
0.0
 42
1.0
 0
VERTEX
 8
WIRE
 10
  1.8100
 20
  5.8000
 30
0.0
 42
1.0
 0
SEQEND
 8
WIRE
 0
POLYLINE
 8
WIRE
 66
1
 10
0.0
 20
0.0
 30
0.0
 0
VERTEX
 8
WIRE
 10
  1.8000
 20
  9.0000
 30
0.0
 0
VERTEX
 8
WIRE
 10
  1.8000
 20
  8.8000
 30
0.0
 0
SEQEND
 8
WIRE
 0
POLYLINE
 8
WIRE
 66
1
 70
1
 10
0.0
 20
0.0
 30
0.0
 40
  0.0200
 41
  0.0200
 0
VERTEX
 8
WIRE
 10
  1.7900
 20
  9.0000
 30
0.0
 42
1.0
 0
VERTEX
 8
WIRE
 10
  1.8100
 20
  9.0000
 30
0.0
 42
1.0
 0
SEQEND
 8
WIRE
 0
POLYLINE
 8
WIRE
 66
1
 10
0.0
 20
0.0
 30
0.0
 0
VERTEX
 8
WIRE
 10
 12.0000
 20
  3.5000
 30
0.0
 0
VERTEX
 8
WIRE
 10
 12.0000
 20
  3.4000
 30
0.0
 0
SEQEND
 8
WIRE
 0
POLYLINE
 8
WIRE
 66
1
 10
0.0
 20
0.0
 30
0.0
 0
VERTEX
 8
WIRE
 10
  5.3000
 20
  3.1000
 30
0.0
 0
VERTEX
 8
WIRE
 10
  5.3000
 20
  2.9000
 30
0.0
 0
SEQEND
 8
WIRE
 0
POLYLINE
 8
WIRE
 66
1
 10
0.0
 20
0.0
 30
0.0
 0
VERTEX
 8
WIRE
 10
  4.0000
 20
  3.3000
 30
0.0
 0
VERTEX
 8
WIRE
 10
  3.5000
 20
  3.3000
 30
0.0
 0
SEQEND
 8
WIRE
 0
TEXT
 8
WIRETEXT
 10
  3.5000
 20
  3.3300
 30
0.0
 40
  0.0514
 1
motor2_dir
 0
POLYLINE
 8
WIRE
 66
1
 10
0.0
 20
0.0
 30
0.0
 0
VERTEX
 8
WIRE
 10
  4.0000
 20
  3.9000
 30
0.0
 0
VERTEX
 8
WIRE
 10
  3.5000
 20
  3.9000
 30
0.0
 0
SEQEND
 8
WIRE
 0
TEXT
 8
WIRETEXT
 10
  3.5000
 20
  3.9300
 30
0.0
 40
  0.0514
 1
TPU0 - pwm
 0
POLYLINE
 8
WIRE
 66
1
 10
0.0
 20
0.0
 30
0.0
 0
VERTEX
 8
WIRE
 10
  2.6000
 20
  6.0000
 30
0.0
 0
VERTEX
 8
WIRE
 10
  2.6000
 20
  6.8000
 30
0.0
 0
SEQEND
 8
WIRE
 0
POLYLINE
 8
WIRE
 66
1
 70
1
 10
0.0
 20
0.0
 30
0.0
 40
  0.0200
 41
  0.0200
 0
VERTEX
 8
WIRE
 10
  2.5900
 20
  6.8000
 30
0.0
 42
1.0
 0
VERTEX
 8
WIRE
 10
  2.6100
 20
  6.8000
 30
0.0
 42
1.0
 0
SEQEND
 8
WIRE
 0
POLYLINE
 8
WIRE
 66
1
 10
0.0
 20
0.0
 30
0.0
 0
VERTEX
 8
WIRE
 10
  2.6000
 20
  9.2000
 30
0.0
 0
VERTEX
 8
WIRE
 10
  2.6000
 20
  9.4000
 30
0.0
 0
SEQEND
 8
WIRE
 0
POLYLINE
 8
WIRE
 66
1
 10
0.0
 20
0.0
 30
0.0
 0
VERTEX
 8
WIRE
 10
  4.0000
 20
  4.0000
 30
0.0
 0
VERTEX
 8
WIRE
 10
  4.0000
 20
  4.3000
 30
0.0
 0
SEQEND
 8
WIRE
 0
POLYLINE
 8
WIRE
 66
1
 10
0.0
 20
0.0
 30
0.0
 0
VERTEX
 8
WIRE
 10
  1.8000
 20
  3.6000
 30
0.0
 0
VERTEX
 8
WIRE
 10
  2.9000
 20
  3.6000
 30
0.0
 0
SEQEND
 8
WIRE
 0
TEXT
 8
WIRETEXT
 10
  2.3500
 20
  3.6300
 30
0.0
 40
  0.0514
 1
motor2_dir
 0
POLYLINE
 8
WIRE
 66
1
 10
0.0
 20
0.0
 30
0.0
 0
VERTEX
 8
WIRE
 10
  1.8000
 20
  6.8000
 30
0.0
 0
VERTEX
 8
WIRE
 10
  2.6000
 20
  6.8000
 30
0.0
 0
SEQEND
 8
WIRE
 0
POLYLINE
 8
WIRE
 66
1
 10
0.0
 20
0.0
 30
0.0
 0
VERTEX
 8
WIRE
 10
  1.8000
 20
  8.2000
 30
0.0
 0
VERTEX
 8
WIRE
 10
  1.8000
 20
  8.0000
 30
0.0
 0
SEQEND
 8
WIRE
 0
POLYLINE
 8
WIRE
 66
1
 70
1
 10
0.0
 20
0.0
 30
0.0
 40
  0.0200
 41
  0.0200
 0
VERTEX
 8
WIRE
 10
  1.7900
 20
  8.2000
 30
0.0
 42
1.0
 0
VERTEX
 8
WIRE
 10
  1.8100
 20
  8.2000
 30
0.0
 42
1.0
 0
SEQEND
 8
WIRE
 0
POLYLINE
 8
WIRE
 66
1
 10
0.0
 20
0.0
 30
0.0
 0
VERTEX
 8
WIRE
 10
  1.8000
 20
  4.0000
 30
0.0
 0
VERTEX
 8
WIRE
 10
  2.6000
 20
  4.0000
 30
0.0
 0
SEQEND
 8
WIRE
 0
POLYLINE
 8
WIRE
 66
1
 10
0.0
 20
0.0
 30
0.0
 0
VERTEX
 8
WIRE
 10
  4.0000
 20
  3.4000
 30
0.0
 0
VERTEX
 8
WIRE
 10
  3.5000
 20
  3.4000
 30
0.0
 0
SEQEND
 8
WIRE
 0
TEXT
 8
WIRETEXT
 10
  3.5000
 20
  3.4300
 30
0.0
 40
  0.0514
 1
motor1_dir
 0
POLYLINE
 8
WIRE
 66
1
 10
0.0
 20
0.0
 30
0.0
 0
VERTEX
 8
WIRE
 10
  1.8000
 20
  4.6000
 30
0.0
 0
VERTEX
 8
WIRE
 10
  1.8000
 20
  4.4000
 30
0.0
 0
SEQEND
 8
WIRE
 0
POLYLINE
 8
WIRE
 66
1
 70
1
 10
0.0
 20
0.0
 30
0.0
 40
  0.0200
 41
  0.0200
 0
VERTEX
 8
WIRE
 10
  1.7900
 20
  4.6000
 30
0.0
 42
1.0
 0
VERTEX
 8
WIRE
 10
  1.8100
 20
  4.6000
 30
0.0
 42
1.0
 0
SEQEND
 8
WIRE
 0
POLYLINE
 8
WIRE
 66
1
 10
0.0
 20
0.0
 30
0.0
 0
VERTEX
 8
WIRE
 10
 13.5000
 20
  3.5000
 30
0.0
 0
VERTEX
 8
WIRE
 10
 13.6000
 20
  3.5000
 30
0.0
 0
SEQEND
 8
WIRE
 0
POLYLINE
 8
WIRE
 66
1
 70
1
 10
0.0
 20
0.0
 30
0.0
 40
  0.0200
 41
  0.0200
 0
VERTEX
 8
WIRE
 10
 13.5900
 20
  3.5000
 30
0.0
 42
1.0
 0
VERTEX
 8
WIRE
 10
 13.6100
 20
  3.5000
 30
0.0
 42
1.0
 0
SEQEND
 8
WIRE
 0
POLYLINE
 8
WIRE
 66
1
 10
0.0
 20
0.0
 30
0.0
 0
VERTEX
 8
WIRE
 10
  1.8000
 20
  0.7000
 30
0.0
 0
VERTEX
 8
WIRE
 10
  1.8000
 20
  0.5000
 30
0.0
 0
SEQEND
 8
WIRE
 0
POLYLINE
 8
WIRE
 66
1
 70
1
 10
0.0
 20
0.0
 30
0.0
 40
  0.0200
 41
  0.0200
 0
VERTEX
 8
WIRE
 10
  1.7900
 20
  0.7000
 30
0.0
 42
1.0
 0
VERTEX
 8
WIRE
 10
  1.8100
 20
  0.7000
 30
0.0
 42
1.0
 0
SEQEND
 8
WIRE
 0
POLYLINE
 8
WIRE
 66
1
 10
0.0
 20
0.0
 30
0.0
 0
VERTEX
 8
WIRE
 10
  1.8000
 20
  2.7000
 30
0.0
 0
VERTEX
 8
WIRE
 10
  1.8000
 20
  2.3000
 30
0.0
 0
SEQEND
 8
WIRE
 0
POLYLINE
 8
WIRE
 66
1
 70
1
 10
0.0
 20
0.0
 30
0.0
 40
  0.0200
 41
  0.0200
 0
VERTEX
 8
WIRE
 10
  1.7900
 20
  2.7000
 30
0.0
 42
1.0
 0
VERTEX
 8
WIRE
 10
  1.8100
 20
  2.7000
 30
0.0
 42
1.0
 0
SEQEND
 8
WIRE
 0
POLYLINE
 8
WIRE
 66
1
 10
0.0
 20
0.0
 30
0.0
 0
VERTEX
 8
WIRE
 10
  5.3000
 20
  3.8000
 30
0.0
 0
VERTEX
 8
WIRE
 10
  5.7000
 20
  3.8000
 30
0.0
 0
SEQEND
 8
WIRE
 0
TEXT
 8
WIRETEXT
 10
  5.4000
 20
  3.8300
 30
0.0
 40
  0.0514
 1
ram
 0
POLYLINE
 8
WIRE
 66
1
 10
0.0
 20
0.0
 30
0.0
 0
VERTEX
 8
WIRE
 10
  2.6000
 20
  8.4000
 30
0.0
 0
VERTEX
 8
WIRE
 10
  2.6000
 20
  9.2000
 30
0.0
 0
SEQEND
 8
WIRE
 0
POLYLINE
 8
WIRE
 66
1
 70
1
 10
0.0
 20
0.0
 30
0.0
 40
  0.0200
 41
  0.0200
 0
VERTEX
 8
WIRE
 10
  2.5900
 20
  9.2000
 30
0.0
 42
1.0
 0
VERTEX
 8
WIRE
 10
  2.6100
 20
  9.2000
 30
0.0
 42
1.0
 0
SEQEND
 8
WIRE
 0
POLYLINE
 8
WIRE
 66
1
 10
0.0
 20
0.0
 30
0.0
 0
VERTEX
 8
WIRE
 10
  5.3000
 20
  3.7000
 30
0.0
 0
VERTEX
 8
WIRE
 10
  5.7000
 20
  3.7000
 30
0.0
 0
SEQEND
 8
WIRE
 0
TEXT
 8
WIRETEXT
 10
  5.4000
 20
  3.7300
 30
0.0
 40
  0.0514
 1
res_but
 0
POLYLINE
 8
WIRE
 66
1
 10
0.0
 20
0.0
 30
0.0
 0
VERTEX
 8
WIRE
 10
 14.7000
 20
  3.4000
 30
0.0
 0
VERTEX
 8
WIRE
 10
 14.8000
 20
  3.4000
 30
0.0
 0
SEQEND
 8
WIRE
 0
POLYLINE
 8
WIRE
 66
1
 10
0.0
 20
0.0
 30
0.0
 0
VERTEX
 8
WIRE
 10
 14.8000
 20
  3.5000
 30
0.0
 0
VERTEX
 8
WIRE
 10
 14.8000
 20
  3.4000
 30
0.0
 0
SEQEND
 8
WIRE
 0
POLYLINE
 8
WIRE
 66
1
 10
0.0
 20
0.0
 30
0.0
 0
VERTEX
 8
WIRE
 10
  1.8000
 20
  5.6000
 30
0.0
 0
VERTEX
 8
WIRE
 10
  2.9000
 20
  5.6000
 30
0.0
 0
SEQEND
 8
WIRE
 0
TEXT
 8
WIRETEXT
 10
  2.3500
 20
  5.6300
 30
0.0
 40
  0.0514
 1
TPU4 - pwm
 0
POLYLINE
 8
WIRE
 66
1
 10
0.0
 20
0.0
 30
0.0
 0
VERTEX
 8
WIRE
 10
  5.3000
 20
  3.4000
 30
0.0
 0
VERTEX
 8
WIRE
 10
  5.5000
 20
  3.4000
 30
0.0
 0
SEQEND
 8
WIRE
 0
POLYLINE
 8
WIRE
 66
1
 10
0.0
 20
0.0
 30
0.0
 0
VERTEX
 8
WIRE
 10
  5.3000
 20
  3.3000
 30
0.0
 0
VERTEX
 8
WIRE
 10
  5.7000
 20
  3.3000
 30
0.0
 0
SEQEND
 8
WIRE
 0
POLYLINE
 8
WIRE
 66
1
 10
0.0
 20
0.0
 30
0.0
 0
VERTEX
 8
WIRE
 10
 14.7000
 20
  3.3000
 30
0.0
 0
VERTEX
 8
WIRE
 10
 14.8000
 20
  3.3000
 30
0.0
 0
SEQEND
 8
WIRE
 0
POLYLINE
 8
WIRE
 66
1
 10
0.0
 20
0.0
 30
0.0
 0
VERTEX
 8
WIRE
 10
  2.3000
 20
  5.8000
 30
0.0
 0
VERTEX
 8
WIRE
 10
  2.3000
 20
  5.4000
 30
0.0
 0
SEQEND
 8
WIRE
 0
POLYLINE
 8
WIRE
 66
1
 10
0.0
 20
0.0
 30
0.0
 0
VERTEX
 8
WIRE
 10
 13.9000
 20
  1.8000
 30
0.0
 0
VERTEX
 8
WIRE
 10
 14.0000
 20
  1.8000
 30
0.0
 0
SEQEND
 8
WIRE
 0
POLYLINE
 8
WIRE
 66
1
 10
0.0
 20
0.0
 30
0.0
 0
VERTEX
 8
WIRE
 10
 12.8000
 20
  2.8000
 30
0.0
 0
VERTEX
 8
WIRE
 10
 12.8000
 20
  2.7000
 30
0.0
 0
SEQEND
 8
WIRE
 0
POLYLINE
 8
WIRE
 66
1
 70
1
 10
0.0
 20
0.0
 30
0.0
 40
  0.0200
 41
  0.0200
 0
VERTEX
 8
WIRE
 10
 12.7900
 20
  2.8000
 30
0.0
 42
1.0
 0
VERTEX
 8
WIRE
 10
 12.8100
 20
  2.8000
 30
0.0
 42
1.0
 0
SEQEND
 8
WIRE
 0
POLYLINE
 8
WIRE
 66
1
 10
0.0
 20
0.0
 30
0.0
 0
VERTEX
 8
WIRE
 10
  2.3000
 20
  2.7000
 30
0.0
 0
VERTEX
 8
WIRE
 10
  2.3000
 20
  3.8000
 30
0.0
 0
SEQEND
 8
WIRE
 0
POLYLINE
 8
WIRE
 66
1
 70
1
 10
0.0
 20
0.0
 30
0.0
 40
  0.0200
 41
  0.0200
 0
VERTEX
 8
WIRE
 10
  2.2900
 20
  3.8000
 30
0.0
 42
1.0
 0
VERTEX
 8
WIRE
 10
  2.3100
 20
  3.8000
 30
0.0
 42
1.0
 0
SEQEND
 8
WIRE
 0
POLYLINE
 8
WIRE
 66
1
 10
0.0
 20
0.0
 30
0.0
 0
VERTEX
 8
WIRE
 10
 14.0000
 20
  1.6000
 30
0.0
 0
VERTEX
 8
WIRE
 10
 14.0000
 20
  1.8000
 30
0.0
 0
SEQEND
 8
WIRE
 0
POLYLINE
 8
WIRE
 66
1
 10
0.0
 20
0.0
 30
0.0
 0
VERTEX
 8
WIRE
 10
  2.3000
 20
  8.2000
 30
0.0
 0
VERTEX
 8
WIRE
 10
  2.3000
 20
  9.0000
 30
0.0
 0
SEQEND
 8
WIRE
 0
POLYLINE
 8
WIRE
 66
1
 70
1
 10
0.0
 20
0.0
 30
0.0
 40
  0.0200
 41
  0.0200
 0
VERTEX
 8
WIRE
 10
  2.2900
 20
  8.2000
 30
0.0
 42
1.0
 0
VERTEX
 8
WIRE
 10
  2.3100
 20
  8.2000
 30
0.0
 42
1.0
 0
SEQEND
 8
WIRE
 0
POLYLINE
 8
WIRE
 66
1
 10
0.0
 20
0.0
 30
0.0
 0
VERTEX
 8
WIRE
 10
  2.3000
 20
  0.7000
 30
0.0
 0
VERTEX
 8
WIRE
 10
  2.3000
 20
  1.7000
 30
0.0
 0
SEQEND
 8
WIRE
 0
POLYLINE
 8
WIRE
 66
1
 70
1
 10
0.0
 20
0.0
 30
0.0
 40
  0.0200
 41
  0.0200
 0
VERTEX
 8
WIRE
 10
  2.2900
 20
  0.7000
 30
0.0
 42
1.0
 0
VERTEX
 8
WIRE
 10
  2.3100
 20
  0.7000
 30
0.0
 42
1.0
 0
SEQEND
 8
WIRE
 0
POLYLINE
 8
WIRE
 66
1
 70
1
 10
0.0
 20
0.0
 30
0.0
 40
  0.0200
 41
  0.0200
 0
VERTEX
 8
WIRE
 10
  2.2900
 20
  1.7000
 30
0.0
 42
1.0
 0
VERTEX
 8
WIRE
 10
  2.3100
 20
  1.7000
 30
0.0
 42
1.0
 0
SEQEND
 8
WIRE
 0
POLYLINE
 8
WIRE
 66
1
 10
0.0
 20
0.0
 30
0.0
 0
VERTEX
 8
WIRE
 10
  2.3000
 20
  1.7000
 30
0.0
 0
VERTEX
 8
WIRE
 10
  2.3000
 20
  2.7000
 30
0.0
 0
SEQEND
 8
WIRE
 0
POLYLINE
 8
WIRE
 66
1
 70
1
 10
0.0
 20
0.0
 30
0.0
 40
  0.0200
 41
  0.0200
 0
VERTEX
 8
WIRE
 10
  2.2900
 20
  2.7000
 30
0.0
 42
1.0
 0
VERTEX
 8
WIRE
 10
  2.3100
 20
  2.7000
 30
0.0
 42
1.0
 0
SEQEND
 8
WIRE
 0
POLYLINE
 8
WIRE
 66
1
 10
0.0
 20
0.0
 30
0.0
 0
VERTEX
 8
WIRE
 10
  2.3000
 20
  5.8000
 30
0.0
 0
VERTEX
 8
WIRE
 10
  2.3000
 20
  6.6000
 30
0.0
 0
SEQEND
 8
WIRE
 0
POLYLINE
 8
WIRE
 66
1
 70
1
 10
0.0
 20
0.0
 30
0.0
 40
  0.0200
 41
  0.0200
 0
VERTEX
 8
WIRE
 10
  2.2900
 20
  5.8000
 30
0.0
 42
1.0
 0
VERTEX
 8
WIRE
 10
  2.3100
 20
  5.8000
 30
0.0
 42
1.0
 0
SEQEND
 8
WIRE
 0
POLYLINE
 8
WIRE
 66
1
 10
0.0
 20
0.0
 30
0.0
 0
VERTEX
 8
WIRE
 10
  2.6000
 20
  2.9000
 30
0.0
 0
VERTEX
 8
WIRE
 10
  2.6000
 20
  3.0000
 30
0.0
 0
SEQEND
 8
WIRE
 0
POLYLINE
 8
WIRE
 66
1
 10
0.0
 20
0.0
 30
0.0
 0
VERTEX
 8
WIRE
 10
  2.3000
 20
  8.2000
 30
0.0
 0
VERTEX
 8
WIRE
 10
  2.3000
 20
  7.4000
 30
0.0
 0
SEQEND
 8
WIRE
 0
POLYLINE
 8
WIRE
 66
1
 10
0.0
 20
0.0
 30
0.0
 0
VERTEX
 8
WIRE
 10
 12.3000
 20
  1.8000
 30
0.0
 0
VERTEX
 8
WIRE
 10
 12.4000
 20
  1.8000
 30
0.0
 0
SEQEND
 8
WIRE
 0
POLYLINE
 8
WIRE
 66
1
 10
0.0
 20
0.0
 30
0.0
 0
VERTEX
 8
WIRE
 10
  2.3000
 20
  0.7000
 30
0.0
 0
VERTEX
 8
WIRE
 10
  2.3000
 20
  0.3000
 30
0.0
 0
SEQEND
 8
WIRE
 0
POLYLINE
 8
WIRE
 66
1
 10
0.0
 20
0.0
 30
0.0
 0
VERTEX
 8
WIRE
 10
 12.8000
 20
  2.8000
 30
0.0
 0
VERTEX
 8
WIRE
 10
 12.9000
 20
  2.8000
 30
0.0
 0
SEQEND
 8
WIRE
 0
POLYLINE
 8
WIRE
 66
1
 10
0.0
 20
0.0
 30
0.0
 0
VERTEX
 8
WIRE
 10
 13.2000
 20
  1.6000
 30
0.0
 0
VERTEX
 8
WIRE
 10
 13.2000
 20
  1.8000
 30
0.0
 0
SEQEND
 8
WIRE
 0
POLYLINE
 8
WIRE
 66
1
 10
0.0
 20
0.0
 30
0.0
 0
VERTEX
 8
WIRE
 10
 12.4000
 20
  1.6000
 30
0.0
 0
VERTEX
 8
WIRE
 10
 12.4000
 20
  1.8000
 30
0.0
 0
SEQEND
 8
WIRE
 0
POLYLINE
 8
WIRE
 66
1
 10
0.0
 20
0.0
 30
0.0
 0
VERTEX
 8
WIRE
 10
 12.3000
 20
  1.9000
 30
0.0
 0
VERTEX
 8
WIRE
 10
 12.4000
 20
  1.9000
 30
0.0
 0
SEQEND
 8
WIRE
 0
POLYLINE
 8
WIRE
 66
1
 10
0.0
 20
0.0
 30
0.0
 0
VERTEX
 8
WIRE
 10
  2.3000
 20
  6.6000
 30
0.0
 0
VERTEX
 8
WIRE
 10
  2.3000
 20
  7.4000
 30
0.0
 0
SEQEND
 8
WIRE
 0
POLYLINE
 8
WIRE
 66
1
 70
1
 10
0.0
 20
0.0
 30
0.0
 40
  0.0200
 41
  0.0200
 0
VERTEX
 8
WIRE
 10
  2.2900
 20
  6.6000
 30
0.0
 42
1.0
 0
VERTEX
 8
WIRE
 10
  2.3100
 20
  6.6000
 30
0.0
 42
1.0
 0
SEQEND
 8
WIRE
 0
POLYLINE
 8
WIRE
 66
1
 70
1
 10
0.0
 20
0.0
 30
0.0
 40
  0.0200
 41
  0.0200
 0
VERTEX
 8
WIRE
 10
  2.2900
 20
  7.4000
 30
0.0
 42
1.0
 0
VERTEX
 8
WIRE
 10
  2.3100
 20
  7.4000
 30
0.0
 42
1.0
 0
SEQEND
 8
WIRE
 0
POLYLINE
 8
WIRE
 66
1
 10
0.0
 20
0.0
 30
0.0
 0
VERTEX
 8
WIRE
 10
  1.8000
 20
  2.9000
 30
0.0
 0
VERTEX
 8
WIRE
 10
  2.6000
 20
  2.9000
 30
0.0
 0
SEQEND
 8
WIRE
 0
POLYLINE
 8
WIRE
 66
1
 10
0.0
 20
0.0
 30
0.0
 0
VERTEX
 8
WIRE
 10
  2.3000
 20
  3.8000
 30
0.0
 0
VERTEX
 8
WIRE
 10
  2.3000
 20
  4.6000
 30
0.0
 0
SEQEND
 8
WIRE
 0
POLYLINE
 8
WIRE
 66
1
 10
0.0
 20
0.0
 30
0.0
 0
VERTEX
 8
WIRE
 10
 14.8000
 20
  3.1000
 30
0.0
 0
VERTEX
 8
WIRE
 10
 14.8000
 20
  3.3000
 30
0.0
 0
SEQEND
 8
WIRE
 0
POLYLINE
 8
WIRE
 66
1
 10
0.0
 20
0.0
 30
0.0
 0
VERTEX
 8
WIRE
 10
 12.4000
 20
  2.0000
 30
0.0
 0
VERTEX
 8
WIRE
 10
 12.4000
 20
  1.9000
 30
0.0
 0
SEQEND
 8
WIRE
 0
POLYLINE
 8
WIRE
 66
1
 10
0.0
 20
0.0
 30
0.0
 0
VERTEX
 8
WIRE
 10
 13.1000
 20
  1.8000
 30
0.0
 0
VERTEX
 8
WIRE
 10
 13.2000
 20
  1.8000
 30
0.0
 0
SEQEND
 8
WIRE
 0
POLYLINE
 8
WIRE
 66
1
 10
0.0
 20
0.0
 30
0.0
 0
VERTEX
 8
WIRE
 10
  0.5000
 20
  5.7000
 30
0.0
 0
VERTEX
 8
WIRE
 10
  0.5000
 20
  5.4000
 30
0.0
 0
SEQEND
 8
WIRE
 0
POLYLINE
 8
WIRE
 66
1
 10
0.0
 20
0.0
 30
0.0
 0
VERTEX
 8
WIRE
 10
  0.5000
 20
  4.5000
 30
0.0
 0
VERTEX
 8
WIRE
 10
  0.5000
 20
  3.7000
 30
0.0
 0
SEQEND
 8
WIRE
 0
POLYLINE
 8
WIRE
 66
1
 70
1
 10
0.0
 20
0.0
 30
0.0
 40
  0.0200
 41
  0.0200
 0
VERTEX
 8
WIRE
 10
  0.4900
 20
  3.7000
 30
0.0
 42
1.0
 0
VERTEX
 8
WIRE
 10
  0.5100
 20
  3.7000
 30
0.0
 42
1.0
 0
SEQEND
 8
WIRE
 0
POLYLINE
 8
WIRE
 66
1
 10
0.0
 20
0.0
 30
0.0
 0
VERTEX
 8
WIRE
 10
 12.0000
 20
  4.9000
 30
0.0
 0
VERTEX
 8
WIRE
 10
 12.1000
 20
  4.9000
 30
0.0
 0
SEQEND
 8
WIRE
 0
POLYLINE
 8
WIRE
 66
1
 10
0.0
 20
0.0
 30
0.0
 0
VERTEX
 8
WIRE
 10
 13.1000
 20
  8.3000
 30
0.0
 0
VERTEX
 8
WIRE
 10
 13.1000
 20
  7.9000
 30
0.0
 0
SEQEND
 8
WIRE
 0
POLYLINE
 8
WIRE
 66
1
 10
0.0
 20
0.0
 30
0.0
 0
VERTEX
 8
WIRE
 10
 10.8000
 20
  4.1000
 30
0.0
 0
VERTEX
 8
WIRE
 10
 11.2000
 20
  4.1000
 30
0.0
 0
SEQEND
 8
WIRE
 0
TEXT
 8
WIRETEXT
 10
 11.0000
 20
  4.1300
 30
0.0
 40
  0.0514
 1
I
 0
POLYLINE
 8
WIRE
 66
1
 10
0.0
 20
0.0
 30
0.0
 0
VERTEX
 8
WIRE
 10
 10.8000
 20
  4.4000
 30
0.0
 0
VERTEX
 8
WIRE
 10
 11.2000
 20
  4.4000
 30
0.0
 0
SEQEND
 8
WIRE
 0
TEXT
 8
WIRETEXT
 10
 11.0000
 20
  4.4300
 30
0.0
 40
  0.0514
 1
G
 0
POLYLINE
 8
WIRE
 66
1
 10
0.0
 20
0.0
 30
0.0
 0
VERTEX
 8
WIRE
 10
 10.8000
 20
  8.9000
 30
0.0
 0
VERTEX
 8
WIRE
 10
 11.0000
 20
  8.9000
 30
0.0
 0
SEQEND
 8
WIRE
 0
POLYLINE
 8
WIRE
 66
1
 70
1
 10
0.0
 20
0.0
 30
0.0
 40
  0.0200
 41
  0.0200
 0
VERTEX
 8
WIRE
 10
 10.9900
 20
  8.9000
 30
0.0
 42
1.0
 0
VERTEX
 8
WIRE
 10
 11.0100
 20
  8.9000
 30
0.0
 42
1.0
 0
SEQEND
 8
WIRE
 0
POLYLINE
 8
WIRE
 66
1
 10
0.0
 20
0.0
 30
0.0
 0
VERTEX
 8
WIRE
 10
  8.8000
 20
  5.8000
 30
0.0
 0
VERTEX
 8
WIRE
 10
  8.3000
 20
  5.8000
 30
0.0
 0
SEQEND
 8
WIRE
 0
TEXT
 8
WIRETEXT
 10
  8.5000
 20
  5.8300
 30
0.0
 40
  0.0514
 1
TPU14
 0
POLYLINE
 8
WIRE
 66
1
 10
0.0
 20
0.0
 30
0.0
 0
VERTEX
 8
WIRE
 10
  6.9000
 20
  4.8000
 30
0.0
 0
VERTEX
 8
WIRE
 10
  6.5000
 20
  4.8000
 30
0.0
 0
SEQEND
 8
WIRE
 0
POLYLINE
 8
WIRE
 66
1
 10
0.0
 20
0.0
 30
0.0
 0
VERTEX
 8
WIRE
 10
 10.8000
 20
  2.9000
 30
0.0
 0
VERTEX
 8
WIRE
 10
 10.8000
 20
  2.8000
 30
0.0
 0
SEQEND
 8
WIRE
 0
POLYLINE
 8
WIRE
 66
1
 70
1
 10
0.0
 20
0.0
 30
0.0
 40
  0.0200
 41
  0.0200
 0
VERTEX
 8
WIRE
 10
 10.7900
 20
  2.9000
 30
0.0
 42
1.0
 0
VERTEX
 8
WIRE
 10
 10.8100
 20
  2.9000
 30
0.0
 42
1.0
 0
SEQEND
 8
WIRE
 0
POLYLINE
 8
WIRE
 66
1
 70
1
 10
0.0
 20
0.0
 30
0.0
 40
  0.0200
 41
  0.0200
 0
VERTEX
 8
WIRE
 10
 10.7900
 20
  2.8000
 30
0.0
 42
1.0
 0
VERTEX
 8
WIRE
 10
 10.8100
 20
  2.8000
 30
0.0
 42
1.0
 0
SEQEND
 8
WIRE
 0
POLYLINE
 8
WIRE
 66
1
 10
0.0
 20
0.0
 30
0.0
 0
VERTEX
 8
WIRE
 10
  8.8000
 20
  4.7000
 30
0.0
 0
VERTEX
 8
WIRE
 10
  8.3000
 20
  4.7000
 30
0.0
 0
SEQEND
 8
WIRE
 0
TEXT
 8
WIRETEXT
 10
  8.3000
 20
  4.7300
 30
0.0
 40
  0.0514
 1
TPU3
 0
POLYLINE
 8
WIRE
 66
1
 10
0.0
 20
0.0
 30
0.0
 0
VERTEX
 8
WIRE
 10
  8.8000
 20
  8.9000
 30
0.0
 0
VERTEX
 8
WIRE
 10
  8.8000
 20
  8.8000
 30
0.0
 0
SEQEND
 8
WIRE
 0
POLYLINE
 8
WIRE
 66
1
 70
1
 10
0.0
 20
0.0
 30
0.0
 40
  0.0200
 41
  0.0200
 0
VERTEX
 8
WIRE
 10
  8.7900
 20
  8.9000
 30
0.0
 42
1.0
 0
VERTEX
 8
WIRE
 10
  8.8100
 20
  8.9000
 30
0.0
 42
1.0
 0
SEQEND
 8
WIRE
 0
POLYLINE
 8
WIRE
 66
1
 10
0.0
 20
0.0
 30
0.0
 0
VERTEX
 8
WIRE
 10
  0.5000
 20
  7.3000
 30
0.0
 0
VERTEX
 8
WIRE
 10
  0.5000
 20
  6.5000
 30
0.0
 0
SEQEND
 8
WIRE
 0
POLYLINE
 8
WIRE
 66
1
 70
1
 10
0.0
 20
0.0
 30
0.0
 40
  0.0200
 41
  0.0200
 0
VERTEX
 8
WIRE
 10
  0.4900
 20
  7.3000
 30
0.0
 42
1.0
 0
VERTEX
 8
WIRE
 10
  0.5100
 20
  7.3000
 30
0.0
 42
1.0
 0
SEQEND
 8
WIRE
 0
POLYLINE
 8
WIRE
 66
1
 70
1
 10
0.0
 20
0.0
 30
0.0
 40
  0.0200
 41
  0.0200
 0
VERTEX
 8
WIRE
 10
  0.4900
 20
  6.5000
 30
0.0
 42
1.0
 0
VERTEX
 8
WIRE
 10
  0.5100
 20
  6.5000
 30
0.0
 42
1.0
 0
SEQEND
 8
WIRE
 0
POLYLINE
 8
WIRE
 66
1
 10
0.0
 20
0.0
 30
0.0
 0
VERTEX
 8
WIRE
 10
  6.9000
 20
  5.8000
 30
0.0
 0
VERTEX
 8
WIRE
 10
  6.9000
 20
  5.9000
 30
0.0
 0
SEQEND
 8
WIRE
 0
POLYLINE
 8
WIRE
 66
1
 70
1
 10
0.0
 20
0.0
 30
0.0
 40
  0.0200
 41
  0.0200
 0
VERTEX
 8
WIRE
 10
  6.8900
 20
  5.8000
 30
0.0
 42
1.0
 0
VERTEX
 8
WIRE
 10
  6.9100
 20
  5.8000
 30
0.0
 42
1.0
 0
SEQEND
 8
WIRE
 0
POLYLINE
 8
WIRE
 66
1
 10
0.0
 20
0.0
 30
0.0
 0
VERTEX
 8
WIRE
 10
 10.8000
 20
  2.7000
 30
0.0
 0
VERTEX
 8
WIRE
 10
 10.8000
 20
  2.6000
 30
0.0
 0
SEQEND
 8
WIRE
 0
POLYLINE
 8
WIRE
 66
1
 70
1
 10
0.0
 20
0.0
 30
0.0
 40
  0.0200
 41
  0.0200
 0
VERTEX
 8
WIRE
 10
 10.7900
 20
  2.6000
 30
0.0
 42
1.0
 0
VERTEX
 8
WIRE
 10
 10.8100
 20
  2.6000
 30
0.0
 42
1.0
 0
SEQEND
 8
WIRE
 0
POLYLINE
 8
WIRE
 66
1
 10
0.0
 20
0.0
 30
0.0
 0
VERTEX
 8
WIRE
 10
 10.8000
 20
  4.3000
 30
0.0
 0
VERTEX
 8
WIRE
 10
 11.2000
 20
  4.3000
 30
0.0
 0
SEQEND
 8
WIRE
 0
TEXT
 8
WIRETEXT
 10
 11.0000
 20
  4.3300
 30
0.0
 40
  0.0514
 1
H
 0
POLYLINE
 8
WIRE
 66
1
 10
0.0
 20
0.0
 30
0.0
 0
VERTEX
 8
WIRE
 10
 10.8000
 20
  6.6000
 30
0.0
 0
VERTEX
 8
WIRE
 10
 11.8000
 20
  6.6000
 30
0.0
 0
SEQEND
 8
WIRE
 0
TEXT
 8
WIRETEXT
 10
 11.2000
 20
  6.6300
 30
0.0
 40
  0.0514
 1
xmt233
 0
POLYLINE
 8
WIRE
 66
1
 10
0.0
 20
0.0
 30
0.0
 0
VERTEX
 8
WIRE
 10
  8.8000
 20
  2.6000
 30
0.0
 0
VERTEX
 8
WIRE
 10
  8.6000
 20
  2.6000
 30
0.0
 0
SEQEND
 8
WIRE
 0
POLYLINE
 8
WIRE
 66
1
 70
1
 10
0.0
 20
0.0
 30
0.0
 40
  0.0200
 41
  0.0200
 0
VERTEX
 8
WIRE
 10
  8.5900
 20
  2.6000
 30
0.0
 42
1.0
 0
VERTEX
 8
WIRE
 10
  8.6100
 20
  2.6000
 30
0.0
 42
1.0
 0
SEQEND
 8
WIRE
 0
POLYLINE
 8
WIRE
 66
1
 10
0.0
 20
0.0
 30
0.0
 0
VERTEX
 8
WIRE
 10
  8.8000
 20
  2.7000
 30
0.0
 0
VERTEX
 8
WIRE
 10
  8.8000
 20
  2.6000
 30
0.0
 0
SEQEND
 8
WIRE
 0
POLYLINE
 8
WIRE
 66
1
 70
1
 10
0.0
 20
0.0
 30
0.0
 40
  0.0200
 41
  0.0200
 0
VERTEX
 8
WIRE
 10
  8.7900
 20
  2.6000
 30
0.0
 42
1.0
 0
VERTEX
 8
WIRE
 10
  8.8100
 20
  2.6000
 30
0.0
 42
1.0
 0
SEQEND
 8
WIRE
 0
POLYLINE
 8
WIRE
 66
1
 10
0.0
 20
0.0
 30
0.0
 0
VERTEX
 8
WIRE
 10
  8.8000
 20
  5.0000
 30
0.0
 0
VERTEX
 8
WIRE
 10
  8.3000
 20
  5.0000
 30
0.0
 0
SEQEND
 8
WIRE
 0
TEXT
 8
WIRETEXT
 10
  8.5000
 20
  5.0300
 30
0.0
 40
  0.0514
 1
TPU6
 0
POLYLINE
 8
WIRE
 66
1
 10
0.0
 20
0.0
 30
0.0
 0
VERTEX
 8
WIRE
 10
 11.2000
 20
  7.3000
 30
0.0
 0
VERTEX
 8
WIRE
 10
 13.1000
 20
  7.3000
 30
0.0
 0
SEQEND
 8
WIRE
 0
POLYLINE
 8
WIRE
 66
1
 10
0.0
 20
0.0
 30
0.0
 0
VERTEX
 8
WIRE
 10
 11.2000
 20
  7.6000
 30
0.0
 0
VERTEX
 8
WIRE
 10
 11.2000
 20
  7.3000
 30
0.0
 0
SEQEND
 8
WIRE
 0
POLYLINE
 8
WIRE
 66
1
 10
0.0
 20
0.0
 30
0.0
 0
VERTEX
 8
WIRE
 10
  6.9000
 20
  5.9000
 30
0.0
 0
VERTEX
 8
WIRE
 10
  6.9000
 20
  6.0000
 30
0.0
 0
SEQEND
 8
WIRE
 0
POLYLINE
 8
WIRE
 66
1
 70
1
 10
0.0
 20
0.0
 30
0.0
 40
  0.0200
 41
  0.0200
 0
VERTEX
 8
WIRE
 10
  6.8900
 20
  5.9000
 30
0.0
 42
1.0
 0
VERTEX
 8
WIRE
 10
  6.9100
 20
  5.9000
 30
0.0
 42
1.0
 0
SEQEND
 8
WIRE
 0
POLYLINE
 8
WIRE
 66
1
 70
1
 10
0.0
 20
0.0
 30
0.0
 40
  0.0200
 41
  0.0200
 0
VERTEX
 8
WIRE
 10
  6.8900
 20
  6.0000
 30
0.0
 42
1.0
 0
VERTEX
 8
WIRE
 10
  6.9100
 20
  6.0000
 30
0.0
 42
1.0
 0
SEQEND
 8
WIRE
 0
POLYLINE
 8
WIRE
 66
1
 10
0.0
 20
0.0
 30
0.0
 0
VERTEX
 8
WIRE
 10
  8.8000
 20
  2.8000
 30
0.0
 0
VERTEX
 8
WIRE
 10
  8.8000
 20
  2.9000
 30
0.0
 0
SEQEND
 8
WIRE
 0
POLYLINE
 8
WIRE
 66
1
 70
1
 10
0.0
 20
0.0
 30
0.0
 40
  0.0200
 41
  0.0200
 0
VERTEX
 8
WIRE
 10
  8.7900
 20
  2.9000
 30
0.0
 42
1.0
 0
VERTEX
 8
WIRE
 10
  8.8100
 20
  2.9000
 30
0.0
 42
1.0
 0
SEQEND
 8
WIRE
 0
POLYLINE
 8
WIRE
 66
1
 10
0.0
 20
0.0
 30
0.0
 0
VERTEX
 8
WIRE
 10
  8.6000
 20
  2.9000
 30
0.0
 0
VERTEX
 8
WIRE
 10
  8.8000
 20
  2.9000
 30
0.0
 0
SEQEND
 8
WIRE
 0
POLYLINE
 8
WIRE
 66
1
 70
1
 10
0.0
 20
0.0
 30
0.0
 40
  0.0200
 41
  0.0200
 0
VERTEX
 8
WIRE
 10
  8.5900
 20
  2.9000
 30
0.0
 42
1.0
 0
VERTEX
 8
WIRE
 10
  8.6100
 20
  2.9000
 30
0.0
 42
1.0
 0
SEQEND
 8
WIRE
 0
POLYLINE
 8
WIRE
 66
1
 10
0.0
 20
0.0
 30
0.0
 0
VERTEX
 8
WIRE
 10
  8.8000
 20
  4.8000
 30
0.0
 0
VERTEX
 8
WIRE
 10
  8.3000
 20
  4.8000
 30
0.0
 0
SEQEND
 8
WIRE
 0
TEXT
 8
WIRETEXT
 10
  8.3000
 20
  4.8300
 30
0.0
 40
  0.0514
 1
TPU4
 0
POLYLINE
 8
WIRE
 66
1
 10
0.0
 20
0.0
 30
0.0
 0
VERTEX
 8
WIRE
 10
  8.8000
 20
  5.9000
 30
0.0
 0
VERTEX
 8
WIRE
 10
  8.3000
 20
  5.9000
 30
0.0
 0
SEQEND
 8
WIRE
 0
TEXT
 8
WIRETEXT
 10
  8.5000
 20
  5.9300
 30
0.0
 40
  0.0514
 1
TPU15
 0
POLYLINE
 8
WIRE
 66
1
 10
0.0
 20
0.0
 30
0.0
 0
VERTEX
 8
WIRE
 10
 13.0000
 20
  7.8000
 30
0.0
 0
VERTEX
 8
WIRE
 10
 13.1000
 20
  7.8000
 30
0.0
 0
SEQEND
 8
WIRE
 0
POLYLINE
 8
WIRE
 66
1
 10
0.0
 20
0.0
 30
0.0
 0
VERTEX
 8
WIRE
 10
  5.9000
 20
  5.4000
 30
0.0
 0
VERTEX
 8
WIRE
 10
  5.9000
 20
  5.3000
 30
0.0
 0
SEQEND
 8
WIRE
 0
POLYLINE
 8
WIRE
 66
1
 70
1
 10
0.0
 20
0.0
 30
0.0
 40
  0.0200
 41
  0.0200
 0
VERTEX
 8
WIRE
 10
  5.8900
 20
  5.3000
 30
0.0
 42
1.0
 0
VERTEX
 8
WIRE
 10
  5.9100
 20
  5.3000
 30
0.0
 42
1.0
 0
SEQEND
 8
WIRE
 0
POLYLINE
 8
WIRE
 66
1
 10
0.0
 20
0.0
 30
0.0
 0
VERTEX
 8
WIRE
 10
  3.9000
 20
  2.1000
 30
0.0
 0
VERTEX
 8
WIRE
 10
  4.1000
 20
  2.1000
 30
0.0
 0
SEQEND
 8
WIRE
 0
POLYLINE
 8
WIRE
 66
1
 10
0.0
 20
0.0
 30
0.0
 0
VERTEX
 8
WIRE
 10
 11.6000
 20
  7.9000
 30
0.0
 0
VERTEX
 8
WIRE
 10
 11.9000
 20
  7.9000
 30
0.0
 0
SEQEND
 8
WIRE
 0
POLYLINE
 8
WIRE
 66
1
 70
1
 10
0.0
 20
0.0
 30
0.0
 40
  0.0200
 41
  0.0200
 0
VERTEX
 8
WIRE
 10
 11.8900
 20
  7.9000
 30
0.0
 42
1.0
 0
VERTEX
 8
WIRE
 10
 11.9100
 20
  7.9000
 30
0.0
 42
1.0
 0
SEQEND
 8
WIRE
 0
POLYLINE
 8
WIRE
 66
1
 10
0.0
 20
0.0
 30
0.0
 0
VERTEX
 8
WIRE
 10
  0.5000
 20
  1.6000
 30
0.0
 0
VERTEX
 8
WIRE
 10
  0.5000
 20
  0.6000
 30
0.0
 0
SEQEND
 8
WIRE
 0
POLYLINE
 8
WIRE
 66
1
 70
1
 10
0.0
 20
0.0
 30
0.0
 40
  0.0200
 41
  0.0200
 0
VERTEX
 8
WIRE
 10
  0.4900
 20
  0.6000
 30
0.0
 42
1.0
 0
VERTEX
 8
WIRE
 10
  0.5100
 20
  0.6000
 30
0.0
 42
1.0
 0
SEQEND
 8
WIRE
 0
POLYLINE
 8
WIRE
 66
1
 10
0.0
 20
0.0
 30
0.0
 0
VERTEX
 8
WIRE
 10
  6.9000
 20
  4.6000
 30
0.0
 0
VERTEX
 8
WIRE
 10
  6.9000
 20
  4.0000
 30
0.0
 0
SEQEND
 8
WIRE
 0
POLYLINE
 8
WIRE
 66
1
 10
0.0
 20
0.0
 30
0.0
 0
VERTEX
 8
WIRE
 10
 10.8000
 20
  4.8000
 30
0.0
 0
VERTEX
 8
WIRE
 10
 11.2000
 20
  4.8000
 30
0.0
 0
SEQEND
 8
WIRE
 0
TEXT
 8
WIRETEXT
 10
 11.0000
 20
  4.8300
 30
0.0
 40
  0.0514
 1
C
 0
POLYLINE
 8
WIRE
 66
1
 10
0.0
 20
0.0
 30
0.0
 0
VERTEX
 8
WIRE
 10
  6.9000
 20
  5.6000
 30
0.0
 0
VERTEX
 8
WIRE
 10
  6.9000
 20
  5.7000
 30
0.0
 0
SEQEND
 8
WIRE
 0
POLYLINE
 8
WIRE
 66
1
 70
1
 10
0.0
 20
0.0
 30
0.0
 40
  0.0200
 41
  0.0200
 0
VERTEX
 8
WIRE
 10
  6.8900
 20
  5.7000
 30
0.0
 42
1.0
 0
VERTEX
 8
WIRE
 10
  6.9100
 20
  5.7000
 30
0.0
 42
1.0
 0
SEQEND
 8
WIRE
 0
POLYLINE
 8
WIRE
 66
1
 10
0.0
 20
0.0
 30
0.0
 0
VERTEX
 8
WIRE
 10
  6.9000
 20
  6.2000
 30
0.0
 0
VERTEX
 8
WIRE
 10
  6.6000
 20
  6.2000
 30
0.0
 0
SEQEND
 8
WIRE
 0
POLYLINE
 8
WIRE
 66
1
 70
1
 10
0.0
 20
0.0
 30
0.0
 40
  0.0200
 41
  0.0200
 0
VERTEX
 8
WIRE
 10
  6.8900
 20
  6.2000
 30
0.0
 42
1.0
 0
VERTEX
 8
WIRE
 10
  6.9100
 20
  6.2000
 30
0.0
 42
1.0
 0
SEQEND
 8
WIRE
 0
POLYLINE
 8
WIRE
 66
1
 10
0.0
 20
0.0
 30
0.0
 0
VERTEX
 8
WIRE
 10
 10.8000
 20
  3.5000
 30
0.0
 0
VERTEX
 8
WIRE
 10
 11.2000
 20
  3.5000
 30
0.0
 0
SEQEND
 8
WIRE
 0
TEXT
 8
WIRETEXT
 10
 11.0000
 20
  3.5300
 30
0.0
 40
  0.0514
 1
O
 0
POLYLINE
 8
WIRE
 66
1
 10
0.0
 20
0.0
 30
0.0
 0
VERTEX
 8
WIRE
 10
  8.8000
 20
  5.1000
 30
0.0
 0
VERTEX
 8
WIRE
 10
  8.3000
 20
  5.1000
 30
0.0
 0
SEQEND
 8
WIRE
 0
TEXT
 8
WIRETEXT
 10
  8.5000
 20
  5.1300
 30
0.0
 40
  0.0514
 1
TPU7
 0
POLYLINE
 8
WIRE
 66
1
 10
0.0
 20
0.0
 30
0.0
 0
VERTEX
 8
WIRE
 10
 11.2000
 20
  8.3000
 30
0.0
 0
VERTEX
 8
WIRE
 10
 11.2000
 20
  7.7000
 30
0.0
 0
SEQEND
 8
WIRE
 0
POLYLINE
 8
WIRE
 66
1
 10
0.0
 20
0.0
 30
0.0
 0
VERTEX
 8
WIRE
 10
  6.9000
 20
  6.1000
 30
0.0
 0
VERTEX
 8
WIRE
 10
  6.9000
 20
  6.2000
 30
0.0
 0
SEQEND
 8
WIRE
 0
POLYLINE
 8
WIRE
 66
1
 70
1
 10
0.0
 20
0.0
 30
0.0
 40
  0.0200
 41
  0.0200
 0
VERTEX
 8
WIRE
 10
  6.8900
 20
  6.1000
 30
0.0
 42
1.0
 0
VERTEX
 8
WIRE
 10
  6.9100
 20
  6.1000
 30
0.0
 42
1.0
 0
SEQEND
 8
WIRE
 0
POLYLINE
 8
WIRE
 66
1
 10
0.0
 20
0.0
 30
0.0
 0
VERTEX
 8
WIRE
 10
  0.5000
 20
  0.6000
 30
0.0
 0
VERTEX
 8
WIRE
 10
  0.5000
 20
  0.3000
 30
0.0
 0
SEQEND
 8
WIRE
 0
POLYLINE
 8
WIRE
 66
1
 10
0.0
 20
0.0
 30
0.0
 0
VERTEX
 8
WIRE
 10
  6.9000
 20
  6.0000
 30
0.0
 0
VERTEX
 8
WIRE
 10
  6.9000
 20
  6.1000
 30
0.0
 0
SEQEND
 8
WIRE
 0
POLYLINE
 8
WIRE
 66
1
 10
0.0
 20
0.0
 30
0.0
 0
VERTEX
 8
WIRE
 10
 10.8000
 20
  7.6000
 30
0.0
 0
VERTEX
 8
WIRE
 10
 11.2000
 20
  7.6000
 30
0.0
 0
SEQEND
 8
WIRE
 0
TEXT
 8
WIRETEXT
 10
 10.9000
 20
  7.6300
 30
0.0
 40
  0.0514
 1
D8
 0
POLYLINE
 8
WIRE
 66
1
 10
0.0
 20
0.0
 30
0.0
 0
VERTEX
 8
WIRE
 10
 10.8000
 20
  7.7000
 30
0.0
 0
VERTEX
 8
WIRE
 10
 11.2000
 20
  7.7000
 30
0.0
 0
SEQEND
 8
WIRE
 0
TEXT
 8
WIRETEXT
 10
 10.9000
 20
  7.7300
 30
0.0
 40
  0.0514
 1
D9
 0
POLYLINE
 8
WIRE
 66
1
 10
0.0
 20
0.0
 30
0.0
 0
VERTEX
 8
WIRE
 10
  8.3000
 20
  4.2000
 30
0.0
 0
VERTEX
 8
WIRE
 10
  8.8000
 20
  4.2000
 30
0.0
 0
SEQEND
 8
WIRE
 0
TEXT
 8
WIRETEXT
 10
  8.3000
 20
  4.2400
 30
0.0
 40
  0.0514
 1
MISO
 0
POLYLINE
 8
WIRE
 66
1
 10
0.0
 20
0.0
 30
0.0
 0
VERTEX
 8
WIRE
 10
 12.8000
 20
  4.2000
 30
0.0
 0
VERTEX
 8
WIRE
 10
 12.9000
 20
  4.2000
 30
0.0
 0
SEQEND
 8
WIRE
 0
POLYLINE
 8
WIRE
 66
1
 10
0.0
 20
0.0
 30
0.0
 0
VERTEX
 8
WIRE
 10
 11.0000
 20
  9.0000
 30
0.0
 0
VERTEX
 8
WIRE
 10
 11.0000
 20
  8.9000
 30
0.0
 0
SEQEND
 8
WIRE
 0
POLYLINE
 8
WIRE
 66
1
 10
0.0
 20
0.0
 30
0.0
 0
VERTEX
 8
WIRE
 10
 10.8000
 20
  3.6000
 30
0.0
 0
VERTEX
 8
WIRE
 10
 11.2000
 20
  3.6000
 30
0.0
 0
SEQEND
 8
WIRE
 0
TEXT
 8
WIRETEXT
 10
 11.0000
 20
  3.6300
 30
0.0
 40
  0.0514
 1
N
 0
POLYLINE
 8
WIRE
 66
1
 10
0.0
 20
0.0
 30
0.0
 0
VERTEX
 8
WIRE
 10
 10.8000
 20
  8.6000
 30
0.0
 0
VERTEX
 8
WIRE
 10
 11.0000
 20
  8.6000
 30
0.0
 0
SEQEND
 8
WIRE
 0
POLYLINE
 8
WIRE
 66
1
 70
1
 10
0.0
 20
0.0
 30
0.0
 40
  0.0200
 41
  0.0200
 0
VERTEX
 8
WIRE
 10
 10.7900
 20
  8.6000
 30
0.0
 42
1.0
 0
VERTEX
 8
WIRE
 10
 10.8100
 20
  8.6000
 30
0.0
 42
1.0
 0
SEQEND
 8
WIRE
 0
POLYLINE
 8
WIRE
 66
1
 70
1
 10
0.0
 20
0.0
 30
0.0
 40
  0.0200
 41
  0.0200
 0
VERTEX
 8
WIRE
 10
 10.9900
 20
  8.6000
 30
0.0
 42
1.0
 0
VERTEX
 8
WIRE
 10
 11.0100
 20
  8.6000
 30
0.0
 42
1.0
 0
SEQEND
 8
WIRE
 0
POLYLINE
 8
WIRE
 66
1
 10
0.0
 20
0.0
 30
0.0
 0
VERTEX
 8
WIRE
 10
  8.8000
 20
  5.2000
 30
0.0
 0
VERTEX
 8
WIRE
 10
  8.3000
 20
  5.2000
 30
0.0
 0
SEQEND
 8
WIRE
 0
TEXT
 8
WIRETEXT
 10
  8.5000
 20
  5.2300
 30
0.0
 40
  0.0514
 1
TPU8
 0
POLYLINE
 8
WIRE
 66
1
 10
0.0
 20
0.0
 30
0.0
 0
VERTEX
 8
WIRE
 10
  8.6000
 20
  2.6000
 30
0.0
 0
VERTEX
 8
WIRE
 10
  8.6000
 20
  2.5000
 30
0.0
 0
SEQEND
 8
WIRE
 0
POLYLINE
 8
WIRE
 66
1
 10
0.0
 20
0.0
 30
0.0
 0
VERTEX
 8
WIRE
 10
  6.9000
 20
  5.7000
 30
0.0
 0
VERTEX
 8
WIRE
 10
  6.9000
 20
  5.8000
 30
0.0
 0
SEQEND
 8
WIRE
 0
POLYLINE
 8
WIRE
 66
1
 10
0.0
 20
0.0
 30
0.0
 0
VERTEX
 8
WIRE
 10
  0.5000
 20
  3.7000
 30
0.0
 0
VERTEX
 8
WIRE
 10
  0.5000
 20
  2.6000
 30
0.0
 0
SEQEND
 8
WIRE
 0
POLYLINE
 8
WIRE
 66
1
 70
1
 10
0.0
 20
0.0
 30
0.0
 40
  0.0200
 41
  0.0200
 0
VERTEX
 8
WIRE
 10
  0.4900
 20
  2.6000
 30
0.0
 42
1.0
 0
VERTEX
 8
WIRE
 10
  0.5100
 20
  2.6000
 30
0.0
 42
1.0
 0
SEQEND
 8
WIRE
 0
POLYLINE
 8
WIRE
 66
1
 10
0.0
 20
0.0
 30
0.0
 0
VERTEX
 8
WIRE
 10
 12.0000
 20
  4.9000
 30
0.0
 0
VERTEX
 8
WIRE
 10
 12.0000
 20
  4.8000
 30
0.0
 0
SEQEND
 8
WIRE
 0
POLYLINE
 8
WIRE
 66
1
 10
0.0
 20
0.0
 30
0.0
 0
VERTEX
 8
WIRE
 10
 13.0000
 20
  7.9000
 30
0.0
 0
VERTEX
 8
WIRE
 10
 13.1000
 20
  7.9000
 30
0.0
 0
SEQEND
 8
WIRE
 0
POLYLINE
 8
WIRE
 66
1
 10
0.0
 20
0.0
 30
0.0
 0
VERTEX
 8
WIRE
 10
 10.8000
 20
  8.9000
 30
0.0
 0
VERTEX
 8
WIRE
 10
 10.8000
 20
  8.8000
 30
0.0
 0
SEQEND
 8
WIRE
 0
POLYLINE
 8
WIRE
 66
1
 70
1
 10
0.0
 20
0.0
 30
0.0
 40
  0.0200
 41
  0.0200
 0
VERTEX
 8
WIRE
 10
 10.7900
 20
  8.9000
 30
0.0
 42
1.0
 0
VERTEX
 8
WIRE
 10
 10.8100
 20
  8.9000
 30
0.0
 42
1.0
 0
SEQEND
 8
WIRE
 0
POLYLINE
 8
WIRE
 66
1
 10
0.0
 20
0.0
 30
0.0
 0
VERTEX
 8
WIRE
 10
  8.3000
 20
  3.9000
 30
0.0
 0
VERTEX
 8
WIRE
 10
  8.8000
 20
  3.9000
 30
0.0
 0
SEQEND
 8
WIRE
 0
TEXT
 8
WIRETEXT
 10
  8.5000
 20
  3.9300
 30
0.0
 40
  0.0514
 1
PCS2
 0
POLYLINE
 8
WIRE
 66
1
 10
0.0
 20
0.0
 30
0.0
 0
VERTEX
 8
WIRE
 10
  8.8000
 20
  4.4000
 30
0.0
 0
VERTEX
 8
WIRE
 10
  8.3000
 20
  4.4000
 30
0.0
 0
SEQEND
 8
WIRE
 0
TEXT
 8
WIRETEXT
 10
  8.3000
 20
  4.4300
 30
0.0
 40
  0.0514
 1
TPU0
 0
POLYLINE
 8
WIRE
 66
1
 10
0.0
 20
0.0
 30
0.0
 0
VERTEX
 8
WIRE
 10
  5.9000
 20
  4.9000
 30
0.0
 0
VERTEX
 8
WIRE
 10
  5.9000
 20
  4.6000
 30
0.0
 0
SEQEND
 8
WIRE
 0
POLYLINE
 8
WIRE
 66
1
 10
0.0
 20
0.0
 30
0.0
 0
VERTEX
 8
WIRE
 10
  0.5000
 20
  2.6000
 30
0.0
 0
VERTEX
 8
WIRE
 10
  0.5000
 20
  1.6000
 30
0.0
 0
SEQEND
 8
WIRE
 0
POLYLINE
 8
WIRE
 66
1
 70
1
 10
0.0
 20
0.0
 30
0.0
 40
  0.0200
 41
  0.0200
 0
VERTEX
 8
WIRE
 10
  0.4900
 20
  1.6000
 30
0.0
 42
1.0
 0
VERTEX
 8
WIRE
 10
  0.5100
 20
  1.6000
 30
0.0
 42
1.0
 0
SEQEND
 8
WIRE
 0
POLYLINE
 8
WIRE
 66
1
 10
0.0
 20
0.0
 30
0.0
 0
VERTEX
 8
WIRE
 10
  6.5000
 20
  4.8000
 30
0.0
 0
VERTEX
 8
WIRE
 10
  6.5000
 20
  4.6000
 30
0.0
 0
SEQEND
 8
WIRE
 0
POLYLINE
 8
WIRE
 66
1
 10
0.0
 20
0.0
 30
0.0
 0
VERTEX
 8
WIRE
 10
 10.8000
 20
  3.7000
 30
0.0
 0
VERTEX
 8
WIRE
 10
 11.2000
 20
  3.7000
 30
0.0
 0
SEQEND
 8
WIRE
 0
TEXT
 8
WIRETEXT
 10
 11.0000
 20
  3.7300
 30
0.0
 40
  0.0514
 1
M
 0
POLYLINE
 8
WIRE
 66
1
 10
0.0
 20
0.0
 30
0.0
 0
VERTEX
 8
WIRE
 10
  8.8000
 20
  5.6000
 30
0.0
 0
VERTEX
 8
WIRE
 10
  8.3000
 20
  5.6000
 30
0.0
 0
SEQEND
 8
WIRE
 0
TEXT
 8
WIRETEXT
 10
  8.5000
 20
  5.6300
 30
0.0
 40
  0.0514
 1
TPU12
 0
POLYLINE
 8
WIRE
 66
1
 10
0.0
 20
0.0
 30
0.0
 0
VERTEX
 8
WIRE
 10
 12.8000
 20
  4.2000
 30
0.0
 0
VERTEX
 8
WIRE
 10
 12.8000
 20
  4.1000
 30
0.0
 0
SEQEND
 8
WIRE
 0
POLYLINE
 8
WIRE
 66
1
 70
1
 10
0.0
 20
0.0
 30
0.0
 40
  0.0200
 41
  0.0200
 0
VERTEX
 8
WIRE
 10
 12.7900
 20
  4.2000
 30
0.0
 42
1.0
 0
VERTEX
 8
WIRE
 10
 12.8100
 20
  4.2000
 30
0.0
 42
1.0
 0
SEQEND
 8
WIRE
 0
POLYLINE
 8
WIRE
 66
1
 10
0.0
 20
0.0
 30
0.0
 0
VERTEX
 8
WIRE
 10
 11.9000
 20
  7.9000
 30
0.0
 0
VERTEX
 8
WIRE
 10
 11.9000
 20
  7.8000
 30
0.0
 0
SEQEND
 8
WIRE
 0
POLYLINE
 8
WIRE
 66
1
 10
0.0
 20
0.0
 30
0.0
 0
VERTEX
 8
WIRE
 10
  0.5000
 20
  8.1000
 30
0.0
 0
VERTEX
 8
WIRE
 10
  0.5000
 20
  7.3000
 30
0.0
 0
SEQEND
 8
WIRE
 0
POLYLINE
 8
WIRE
 66
1
 10
0.0
 20
0.0
 30
0.0
 0
VERTEX
 8
WIRE
 10
 11.2000
 20
  8.3000
 30
0.0
 0
VERTEX
 8
WIRE
 10
 13.1000
 20
  8.3000
 30
0.0
 0
SEQEND
 8
WIRE
 0
POLYLINE
 8
WIRE
 66
1
 10
0.0
 20
0.0
 30
0.0
 0
VERTEX
 8
WIRE
 10
 10.8000
 20
  8.7000
 30
0.0
 0
VERTEX
 8
WIRE
 10
 10.8000
 20
  8.6000
 30
0.0
 0
SEQEND
 8
WIRE
 0
POLYLINE
 8
WIRE
 66
1
 10
0.0
 20
0.0
 30
0.0
 0
VERTEX
 8
WIRE
 10
  8.8000
 20
  5.3000
 30
0.0
 0
VERTEX
 8
WIRE
 10
  8.3000
 20
  5.3000
 30
0.0
 0
SEQEND
 8
WIRE
 0
TEXT
 8
WIRETEXT
 10
  8.5000
 20
  5.3300
 30
0.0
 40
  0.0514
 1
TPU9
 0
POLYLINE
 8
WIRE
 66
1
 10
0.0
 20
0.0
 30
0.0
 0
VERTEX
 8
WIRE
 10
  8.6000
 20
  8.6000
 30
0.0
 0
VERTEX
 8
WIRE
 10
  8.8000
 20
  8.6000
 30
0.0
 0
SEQEND
 8
WIRE
 0
POLYLINE
 8
WIRE
 66
1
 70
1
 10
0.0
 20
0.0
 30
0.0
 40
  0.0200
 41
  0.0200
 0
VERTEX
 8
WIRE
 10
  8.5900
 20
  8.6000
 30
0.0
 42
1.0
 0
VERTEX
 8
WIRE
 10
  8.6100
 20
  8.6000
 30
0.0
 42
1.0
 0
SEQEND
 8
WIRE
 0
POLYLINE
 8
WIRE
 66
1
 10
0.0
 20
0.0
 30
0.0
 0
VERTEX
 8
WIRE
 10
  8.8000
 20
  8.7000
 30
0.0
 0
VERTEX
 8
WIRE
 10
  8.8000
 20
  8.6000
 30
0.0
 0
SEQEND
 8
WIRE
 0
POLYLINE
 8
WIRE
 66
1
 70
1
 10
0.0
 20
0.0
 30
0.0
 40
  0.0200
 41
  0.0200
 0
VERTEX
 8
WIRE
 10
  8.7900
 20
  8.6000
 30
0.0
 42
1.0
 0
VERTEX
 8
WIRE
 10
  8.8100
 20
  8.6000
 30
0.0
 42
1.0
 0
SEQEND
 8
WIRE
 0
POLYLINE
 8
WIRE
 66
1
 10
0.0
 20
0.0
 30
0.0
 0
VERTEX
 8
WIRE
 10
  3.9000
 20
  2.1000
 30
0.0
 0
VERTEX
 8
WIRE
 10
  3.9000
 20
  2.0000
 30
0.0
 0
SEQEND
 8
WIRE
 0
POLYLINE
 8
WIRE
 66
1
 10
0.0
 20
0.0
 30
0.0
 0
VERTEX
 8
WIRE
 10
 11.6000
 20
  7.9000
 30
0.0
 0
VERTEX
 8
WIRE
 10
 11.6000
 20
  7.6000
 30
0.0
 0
SEQEND
 8
WIRE
 0
POLYLINE
 8
WIRE
 66
1
 10
0.0
 20
0.0
 30
0.0
 0
VERTEX
 8
WIRE
 10
 10.8000
 20
  3.8000
 30
0.0
 0
VERTEX
 8
WIRE
 10
 11.2000
 20
  3.8000
 30
0.0
 0
SEQEND
 8
WIRE
 0
TEXT
 8
WIRETEXT
 10
 11.0000
 20
  3.8300
 30
0.0
 40
  0.0514
 1
L
 0
POLYLINE
 8
WIRE
 66
1
 10
0.0
 20
0.0
 30
0.0
 0
VERTEX
 8
WIRE
 10
 10.8000
 20
  4.7000
 30
0.0
 0
VERTEX
 8
WIRE
 10
 11.2000
 20
  4.7000
 30
0.0
 0
SEQEND
 8
WIRE
 0
TEXT
 8
WIRETEXT
 10
 11.0000
 20
  4.7300
 30
0.0
 40
  0.0514
 1
D
 0
POLYLINE
 8
WIRE
 66
1
 10
0.0
 20
0.0
 30
0.0
 0
VERTEX
 8
WIRE
 10
 10.8000
 20
  6.4000
 30
0.0
 0
VERTEX
 8
WIRE
 10
 11.8000
 20
  6.4000
 30
0.0
 0
SEQEND
 8
WIRE
 0
TEXT
 8
WIRETEXT
 10
 11.2000
 20
  6.4300
 30
0.0
 40
  0.0514
 1
rcv232
 0
POLYLINE
 8
WIRE
 66
1
 10
0.0
 20
0.0
 30
0.0
 0
VERTEX
 8
WIRE
 10
  8.3000
 20
  4.3000
 30
0.0
 0
VERTEX
 8
WIRE
 10
  8.8000
 20
  4.3000
 30
0.0
 0
SEQEND
 8
WIRE
 0
TEXT
 8
WIRETEXT
 10
  8.3000
 20
  4.3400
 30
0.0
 40
  0.0514
 1
MOSI
 0
POLYLINE
 8
WIRE
 66
1
 10
0.0
 20
0.0
 30
0.0
 0
VERTEX
 8
WIRE
 10
  5.9000
 20
  5.2000
 30
0.0
 0
VERTEX
 8
WIRE
 10
  5.9000
 20
  5.1000
 30
0.0
 0
SEQEND
 8
WIRE
 0
POLYLINE
 8
WIRE
 66
1
 70
1
 10
0.0
 20
0.0
 30
0.0
 40
  0.0200
 41
  0.0200
 0
VERTEX
 8
WIRE
 10
  5.8900
 20
  5.2000
 30
0.0
 42
1.0
 0
VERTEX
 8
WIRE
 10
  5.9100
 20
  5.2000
 30
0.0
 42
1.0
 0
SEQEND
 8
WIRE
 0
POLYLINE
 8
WIRE
 66
1
 10
0.0
 20
0.0
 30
0.0
 0
VERTEX
 8
WIRE
 10
  6.1000
 20
  3.3000
 30
0.0
 0
VERTEX
 8
WIRE
 10
  6.5000
 20
  3.3000
 30
0.0
 0
SEQEND
 8
WIRE
 0
POLYLINE
 8
WIRE
 66
1
 70
1
 10
0.0
 20
0.0
 30
0.0
 40
  0.0200
 41
  0.0200
 0
VERTEX
 8
WIRE
 10
  6.4900
 20
  3.3000
 30
0.0
 42
1.0
 0
VERTEX
 8
WIRE
 10
  6.5100
 20
  3.3000
 30
0.0
 42
1.0
 0
SEQEND
 8
WIRE
 0
TEXT
 8
WIRETEXT
 10
  6.1000
 20
  3.3400
 30
0.0
 40
  0.0514
 1
RESET
 0
POLYLINE
 8
WIRE
 66
1
 10
0.0
 20
0.0
 30
0.0
 0
VERTEX
 8
WIRE
 10
  8.6000
 20
  9.0000
 30
0.0
 0
VERTEX
 8
WIRE
 10
  8.6000
 20
  8.9000
 30
0.0
 0
SEQEND
 8
WIRE
 0
POLYLINE
 8
WIRE
 66
1
 10
0.0
 20
0.0
 30
0.0
 0
VERTEX
 8
WIRE
 10
  6.5000
 20
  4.6000
 30
0.0
 0
VERTEX
 8
WIRE
 10
  6.3000
 20
  4.6000
 30
0.0
 0
SEQEND
 8
WIRE
 0
POLYLINE
 8
WIRE
 66
1
 10
0.0
 20
0.0
 30
0.0
 0
VERTEX
 8
WIRE
 10
  0.5000
 20
  6.5000
 30
0.0
 0
VERTEX
 8
WIRE
 10
  0.5000
 20
  5.7000
 30
0.0
 0
SEQEND
 8
WIRE
 0
POLYLINE
 8
WIRE
 66
1
 70
1
 10
0.0
 20
0.0
 30
0.0
 40
  0.0200
 41
  0.0200
 0
VERTEX
 8
WIRE
 10
  0.4900
 20
  5.7000
 30
0.0
 42
1.0
 0
VERTEX
 8
WIRE
 10
  0.5100
 20
  5.7000
 30
0.0
 42
1.0
 0
SEQEND
 8
WIRE
 0
POLYLINE
 8
WIRE
 66
1
 10
0.0
 20
0.0
 30
0.0
 0
VERTEX
 8
WIRE
 10
  8.3000
 20
  3.8000
 30
0.0
 0
VERTEX
 8
WIRE
 10
  8.8000
 20
  3.8000
 30
0.0
 0
SEQEND
 8
WIRE
 0
TEXT
 8
WIRETEXT
 10
  8.3000
 20
  3.8300
 30
0.0
 40
  0.0514
 1
PCS1
 0
POLYLINE
 8
WIRE
 66
1
 10
0.0
 20
0.0
 30
0.0
 0
VERTEX
 8
WIRE
 10
  8.3000
 20
  4.1000
 30
0.0
 0
VERTEX
 8
WIRE
 10
  8.8000
 20
  4.1000
 30
0.0
 0
SEQEND
 8
WIRE
 0
TEXT
 8
WIRETEXT
 10
  8.3000
 20
  4.1400
 30
0.0
 40
  0.0514
 1
PCS0
 0
POLYLINE
 8
WIRE
 66
1
 10
0.0
 20
0.0
 30
0.0
 0
VERTEX
 8
WIRE
 10
  8.8000
 20
  4.9000
 30
0.0
 0
VERTEX
 8
WIRE
 10
  8.3000
 20
  4.9000
 30
0.0
 0
SEQEND
 8
WIRE
 0
TEXT
 8
WIRETEXT
 10
  8.5000
 20
  4.9300
 30
0.0
 40
  0.0514
 1
TPU5
 0
POLYLINE
 8
WIRE
 66
1
 10
0.0
 20
0.0
 30
0.0
 0
VERTEX
 8
WIRE
 10
  8.8000
 20
  5.4000
 30
0.0
 0
VERTEX
 8
WIRE
 10
  8.3000
 20
  5.4000
 30
0.0
 0
SEQEND
 8
WIRE
 0
TEXT
 8
WIRETEXT
 10
  8.5000
 20
  5.4300
 30
0.0
 40
  0.0514
 1
TPU10
 0
POLYLINE
 8
WIRE
 66
1
 10
0.0
 20
0.0
 30
0.0
 0
VERTEX
 8
WIRE
 10
  8.8000
 20
  5.5000
 30
0.0
 0
VERTEX
 8
WIRE
 10
  8.3000
 20
  5.5000
 30
0.0
 0
SEQEND
 8
WIRE
 0
TEXT
 8
WIRETEXT
 10
  8.5000
 20
  5.5300
 30
0.0
 40
  0.0514
 1
TPU11
 0
POLYLINE
 8
WIRE
 66
1
 10
0.0
 20
0.0
 30
0.0
 0
VERTEX
 8
WIRE
 10
  8.6000
 20
  8.9000
 30
0.0
 0
VERTEX
 8
WIRE
 10
  8.8000
 20
  8.9000
 30
0.0
 0
SEQEND
 8
WIRE
 0
POLYLINE
 8
WIRE
 66
1
 70
1
 10
0.0
 20
0.0
 30
0.0
 40
  0.0200
 41
  0.0200
 0
VERTEX
 8
WIRE
 10
  8.5900
 20
  8.9000
 30
0.0
 42
1.0
 0
VERTEX
 8
WIRE
 10
  8.6100
 20
  8.9000
 30
0.0
 42
1.0
 0
SEQEND
 8
WIRE
 0
POLYLINE
 8
WIRE
 66
1
 10
0.0
 20
0.0
 30
0.0
 0
VERTEX
 8
WIRE
 10
  0.5000
 20
  8.9000
 30
0.0
 0
VERTEX
 8
WIRE
 10
  0.5000
 20
  8.1000
 30
0.0
 0
SEQEND
 8
WIRE
 0
POLYLINE
 8
WIRE
 66
1
 70
1
 10
0.0
 20
0.0
 30
0.0
 40
  0.0200
 41
  0.0200
 0
VERTEX
 8
WIRE
 10
  0.4900
 20
  8.1000
 30
0.0
 42
1.0
 0
VERTEX
 8
WIRE
 10
  0.5100
 20
  8.1000
 30
0.0
 42
1.0
 0
SEQEND
 8
WIRE
 0
POLYLINE
 8
WIRE
 66
1
 10
0.0
 20
0.0
 30
0.0
 0
VERTEX
 8
WIRE
 10
 10.8000
 20
  3.9000
 30
0.0
 0
VERTEX
 8
WIRE
 10
 11.2000
 20
  3.9000
 30
0.0
 0
SEQEND
 8
WIRE
 0
TEXT
 8
WIRETEXT
 10
 11.0000
 20
  3.9300
 30
0.0
 40
  0.0514
 1
K
 0
POLYLINE
 8
WIRE
 66
1
 10
0.0
 20
0.0
 30
0.0
 0
VERTEX
 8
WIRE
 10
 10.8000
 20
  4.6000
 30
0.0
 0
VERTEX
 8
WIRE
 10
 11.2000
 20
  4.6000
 30
0.0
 0
SEQEND
 8
WIRE
 0
TEXT
 8
WIRETEXT
 10
 11.0000
 20
  4.6300
 30
0.0
 40
  0.0514
 1
E
 0
POLYLINE
 8
WIRE
 66
1
 10
0.0
 20
0.0
 30
0.0
 0
VERTEX
 8
WIRE
 10
  8.8000
 20
  4.5000
 30
0.0
 0
VERTEX
 8
WIRE
 10
  8.3000
 20
  4.5000
 30
0.0
 0
SEQEND
 8
WIRE
 0
TEXT
 8
WIRETEXT
 10
  8.3000
 20
  4.5300
 30
0.0
 40
  0.0514
 1
TPU1
 0
POLYLINE
 8
WIRE
 66
1
 10
0.0
 20
0.0
 30
0.0
 0
VERTEX
 8
WIRE
 10
 14.7000
 20
  4.7000
 30
0.0
 0
VERTEX
 8
WIRE
 10
 14.8000
 20
  4.7000
 30
0.0
 0
SEQEND
 8
WIRE
 0
POLYLINE
 8
WIRE
 66
1
 10
0.0
 20
0.0
 30
0.0
 0
VERTEX
 8
WIRE
 10
  4.1000
 20
  2.1000
 30
0.0
 0
VERTEX
 8
WIRE
 10
  4.1000
 20
  1.8000
 30
0.0
 0
SEQEND
 8
WIRE
 0
POLYLINE
 8
WIRE
 66
1
 10
0.0
 20
0.0
 30
0.0
 0
VERTEX
 8
WIRE
 10
 12.0000
 20
  5.0000
 30
0.0
 0
VERTEX
 8
WIRE
 10
 12.0000
 20
  4.9000
 30
0.0
 0
SEQEND
 8
WIRE
 0
POLYLINE
 8
WIRE
 66
1
 70
1
 10
0.0
 20
0.0
 30
0.0
 40
  0.0200
 41
  0.0200
 0
VERTEX
 8
WIRE
 10
 11.9900
 20
  4.9000
 30
0.0
 42
1.0
 0
VERTEX
 8
WIRE
 10
 12.0100
 20
  4.9000
 30
0.0
 42
1.0
 0
SEQEND
 8
WIRE
 0
POLYLINE
 8
WIRE
 66
1
 10
0.0
 20
0.0
 30
0.0
 0
VERTEX
 8
WIRE
 10
 10.8000
 20
  4.9000
 30
0.0
 0
VERTEX
 8
WIRE
 10
 11.2000
 20
  4.9000
 30
0.0
 0
SEQEND
 8
WIRE
 0
TEXT
 8
WIRETEXT
 10
 11.0000
 20
  4.9300
 30
0.0
 40
  0.0514
 1
B
 0
POLYLINE
 8
WIRE
 66
1
 10
0.0
 20
0.0
 30
0.0
 0
VERTEX
 8
WIRE
 10
 10.8000
 20
  6.2000
 30
0.0
 0
VERTEX
 8
WIRE
 10
 11.2000
 20
  6.2000
 30
0.0
 0
SEQEND
 8
WIRE
 0
TEXT
 8
WIRETEXT
 10
 11.0000
 20
  6.2300
 30
0.0
 40
  0.0514
 1
A
 0
POLYLINE
 8
WIRE
 66
1
 10
0.0
 20
0.0
 30
0.0
 0
VERTEX
 8
WIRE
 10
  6.5000
 20
  3.3000
 30
0.0
 0
VERTEX
 8
WIRE
 10
  8.8000
 20
  3.3000
 30
0.0
 0
SEQEND
 8
WIRE
 0
POLYLINE
 8
WIRE
 66
1
 10
0.0
 20
0.0
 30
0.0
 0
VERTEX
 8
WIRE
 10
  8.3000
 20
  4.0000
 30
0.0
 0
VERTEX
 8
WIRE
 10
  8.8000
 20
  4.0000
 30
0.0
 0
SEQEND
 8
WIRE
 0
TEXT
 8
WIRETEXT
 10
  8.3000
 20
  4.0400
 30
0.0
 40
  0.0514
 1
SCK
 0
POLYLINE
 8
WIRE
 66
1
 10
0.0
 20
0.0
 30
0.0
 0
VERTEX
 8
WIRE
 10
  8.8000
 20
  5.7000
 30
0.0
 0
VERTEX
 8
WIRE
 10
  8.3000
 20
  5.7000
 30
0.0
 0
SEQEND
 8
WIRE
 0
TEXT
 8
WIRETEXT
 10
  8.5000
 20
  5.7300
 30
0.0
 40
  0.0514
 1
TPU13
 0
POLYLINE
 8
WIRE
 66
1
 10
0.0
 20
0.0
 30
0.0
 0
VERTEX
 8
WIRE
 10
 14.8000
 20
  4.7000
 30
0.0
 0
VERTEX
 8
WIRE
 10
 14.8000
 20
  4.5000
 30
0.0
 0
SEQEND
 8
WIRE
 0
POLYLINE
 8
WIRE
 66
1
 10
0.0
 20
0.0
 30
0.0
 0
VERTEX
 8
WIRE
 10
  6.9000
 20
  4.9000
 30
0.0
 0
VERTEX
 8
WIRE
 10
  5.9000
 20
  4.9000
 30
0.0
 0
SEQEND
 8
WIRE
 0
POLYLINE
 8
WIRE
 66
1
 10
0.0
 20
0.0
 30
0.0
 0
VERTEX
 8
WIRE
 10
  6.6000
 20
  6.2000
 30
0.0
 0
VERTEX
 8
WIRE
 10
  6.6000
 20
  6.1000
 30
0.0
 0
SEQEND
 8
WIRE
 0
POLYLINE
 8
WIRE
 66
1
 10
0.0
 20
0.0
 30
0.0
 0
VERTEX
 8
WIRE
 10
  5.9000
 20
  5.3000
 30
0.0
 0
VERTEX
 8
WIRE
 10
  5.9000
 20
  5.2000
 30
0.0
 0
SEQEND
 8
WIRE
 0
POLYLINE
 8
WIRE
 66
1
 10
0.0
 20
0.0
 30
0.0
 0
VERTEX
 8
WIRE
 10
 10.8000
 20
  3.4000
 30
0.0
 0
VERTEX
 8
WIRE
 10
 11.2000
 20
  3.4000
 30
0.0
 0
SEQEND
 8
WIRE
 0
TEXT
 8
WIRETEXT
 10
 11.0000
 20
  3.4300
 30
0.0
 40
  0.0514
 1
P
 0
POLYLINE
 8
WIRE
 66
1
 10
0.0
 20
0.0
 30
0.0
 0
VERTEX
 8
WIRE
 10
 10.8000
 20
  4.0000
 30
0.0
 0
VERTEX
 8
WIRE
 10
 11.2000
 20
  4.0000
 30
0.0
 0
SEQEND
 8
WIRE
 0
TEXT
 8
WIRETEXT
 10
 11.0000
 20
  4.0300
 30
0.0
 40
  0.0514
 1
J
 0
POLYLINE
 8
WIRE
 66
1
 10
0.0
 20
0.0
 30
0.0
 0
VERTEX
 8
WIRE
 10
 10.8000
 20
  4.5000
 30
0.0
 0
VERTEX
 8
WIRE
 10
 11.2000
 20
  4.5000
 30
0.0
 0
SEQEND
 8
WIRE
 0
TEXT
 8
WIRETEXT
 10
 11.0000
 20
  4.5300
 30
0.0
 40
  0.0514
 1
F
 0
POLYLINE
 8
WIRE
 66
1
 10
0.0
 20
0.0
 30
0.0
 0
VERTEX
 8
WIRE
 10
  8.3000
 20
  3.6000
 30
0.0
 0
VERTEX
 8
WIRE
 10
  8.8000
 20
  3.6000
 30
0.0
 0
SEQEND
 8
WIRE
 0
TEXT
 8
WIRETEXT
 10
  8.5000
 20
  3.6300
 30
0.0
 40
  0.0514
 1
PCS3
 0
POLYLINE
 8
WIRE
 66
1
 10
0.0
 20
0.0
 30
0.0
 0
VERTEX
 8
WIRE
 10
  8.8000
 20
  4.6000
 30
0.0
 0
VERTEX
 8
WIRE
 10
  8.3000
 20
  4.6000
 30
0.0
 0
SEQEND
 8
WIRE
 0
TEXT
 8
WIRETEXT
 10
  8.3000
 20
  4.6300
 30
0.0
 40
  0.0514
 1
TPU2
 0
POLYLINE
 8
WIRE
 66
1
 10
0.0
 20
0.0
 30
0.0
 0
VERTEX
 8
WIRE
 10
 11.0000
 20
  2.6000
 30
0.0
 0
VERTEX
 8
WIRE
 10
 11.0000
 20
  2.5000
 30
0.0
 0
SEQEND
 8
WIRE
 0
POLYLINE
 8
WIRE
 66
1
 70
1
 10
0.0
 20
0.0
 30
0.0
 40
  0.0200
 41
  0.0200
 0
VERTEX
 8
WIRE
 10
 10.9900
 20
  2.6000
 30
0.0
 42
1.0
 0
VERTEX
 8
WIRE
 10
 11.0100
 20
  2.6000
 30
0.0
 42
1.0
 0
SEQEND
 8
WIRE
 0
POLYLINE
 8
WIRE
 66
1
 10
0.0
 20
0.0
 30
0.0
 0
VERTEX
 8
WIRE
 10
 13.1000
 20
  7.8000
 30
0.0
 0
VERTEX
 8
WIRE
 10
 13.1000
 20
  7.3000
 30
0.0
 0
SEQEND
 8
WIRE
 0
POLYLINE
 8
WIRE
 66
1
 10
0.0
 20
0.0
 30
0.0
 0
VERTEX
 8
WIRE
 10
 10.8000
 20
  2.6000
 30
0.0
 0
VERTEX
 8
WIRE
 10
 11.0000
 20
  2.6000
 30
0.0
 0
SEQEND
 8
WIRE
 0
POLYLINE
 8
WIRE
 66
1
 10
0.0
 20
0.0
 30
0.0
 0
VERTEX
 8
WIRE
 10
 10.8000
 20
  2.9000
 30
0.0
 0
VERTEX
 8
WIRE
 10
 11.0000
 20
  2.9000
 30
0.0
 0
SEQEND
 8
WIRE
 0
POLYLINE
 8
WIRE
 66
1
 70
1
 10
0.0
 20
0.0
 30
0.0
 40
  0.0200
 41
  0.0200
 0
VERTEX
 8
WIRE
 10
 10.9900
 20
  2.9000
 30
0.0
 42
1.0
 0
VERTEX
 8
WIRE
 10
 11.0100
 20
  2.9000
 30
0.0
 42
1.0
 0
SEQEND
 8
WIRE
 0
POLYLINE
 8
WIRE
 66
1
 10
0.0
 20
0.0
 30
0.0
 0
VERTEX
 8
WIRE
 10
  8.0000
 20
  4.0000
 30
0.0
 0
VERTEX
 8
WIRE
 10
  8.1000
 20
  4.0000
 30
0.0
 0
SEQEND
 8
WIRE
 0
POLYLINE
 8
WIRE
 66
1
 10
0.0
 20
0.0
 30
0.0
 0
VERTEX
 8
WIRE
 10
  6.9000
 20
  4.0000
 30
0.0
 0
VERTEX
 8
WIRE
 10
  7.1000
 20
  4.0000
 30
0.0
 0
SEQEND
 8
WIRE
 0
POLYLINE
 8
WIRE
 66
1
 10
0.0
 20
0.0
 30
0.0
 0
VERTEX
 8
WIRE
 10
  8.1000
 20
  3.4000
 30
0.0
 0
VERTEX
 8
WIRE
 10
  8.1000
 20
  4.0000
 30
0.0
 0
SEQEND
 8
WIRE
 0
POLYLINE
 8
WIRE
 66
1
 10
0.0
 20
0.0
 30
0.0
 0
VERTEX
 8
WIRE
 10
  8.1000
 20
  3.4000
 30
0.0
 0
VERTEX
 8
WIRE
 10
  8.8000
 20
  3.4000
 30
0.0
 0
SEQEND
 8
WIRE
 0
TEXT
 8
WIRETEXT
 10
  8.3000
 20
  3.4300
 30
0.0
 40
  0.0514
 1
RXD
 0
TEXT
 8
PARTTEXT
 10
  8.5400
 20
  8.4186
 30
0.0
 40
  0.0514
 1
5V
 0
POLYLINE
 8
PARTS
 66
1
 10
0.0
 20
0.0
 30
0.0
 0
VERTEX
 8
PARTS
 10
  8.6000
 20
  8.5000
 30
0.0
 0
VERTEX
 8
PARTS
 10
  8.6000
 20
  8.6000
 30
0.0
 0
SEQEND
 8
PARTS
 0
POLYLINE
 8
PARTS
 66
1
 10
0.0
 20
0.0
 30
0.0
 0
VERTEX
 8
PARTS
 10
  8.5500
 20
  8.5000
 30
0.0
 0
VERTEX
 8
PARTS
 10
  8.6500
 20
  8.5000
 30
0.0
 0
SEQEND
 8
PARTS
 0
POLYLINE
 8
PARTS
 66
1
 10
0.0
 20
0.0
 30
0.0
 0
VERTEX
 8
PARTS
 10
 10.9000
 20
  2.5000
 30
0.0
 0
VERTEX
 8
PARTS
 10
 11.1000
 20
  2.5000
 30
0.0
 0
SEQEND
 8
PARTS
 0
POLYLINE
 8
PARTS
 66
1
 10
0.0
 20
0.0
 30
0.0
 0
VERTEX
 8
PARTS
 10
 10.9300
 20
  2.4700
 30
0.0
 0
VERTEX
 8
PARTS
 10
 11.0700
 20
  2.4700
 30
0.0
 0
SEQEND
 8
PARTS
 0
POLYLINE
 8
PARTS
 66
1
 10
0.0
 20
0.0
 30
0.0
 0
VERTEX
 8
PARTS
 10
 11.0400
 20
  2.4400
 30
0.0
 0
VERTEX
 8
PARTS
 10
 10.9600
 20
  2.4400
 30
0.0
 0
SEQEND
 8
PARTS
 0
POLYLINE
 8
PARTS
 66
1
 10
0.0
 20
0.0
 30
0.0
 0
VERTEX
 8
PARTS
 10
 10.9900
 20
  2.4100
 30
0.0
 0
VERTEX
 8
PARTS
 10
 11.0100
 20
  2.4100
 30
0.0
 0
SEQEND
 8
PARTS
 0
POLYLINE
 8
PARTS
 66
1
 10
0.0
 20
0.0
 30
0.0
 0
VERTEX
 8
PARTS
 10
 14.7000
 20
  4.5000
 30
0.0
 0
VERTEX
 8
PARTS
 10
 14.9000
 20
  4.5000
 30
0.0
 0
SEQEND
 8
PARTS
 0
POLYLINE
 8
PARTS
 66
1
 10
0.0
 20
0.0
 30
0.0
 0
VERTEX
 8
PARTS
 10
 14.7300
 20
  4.4700
 30
0.0
 0
VERTEX
 8
PARTS
 10
 14.8700
 20
  4.4700
 30
0.0
 0
SEQEND
 8
PARTS
 0
POLYLINE
 8
PARTS
 66
1
 10
0.0
 20
0.0
 30
0.0
 0
VERTEX
 8
PARTS
 10
 14.8400
 20
  4.4400
 30
0.0
 0
VERTEX
 8
PARTS
 10
 14.7600
 20
  4.4400
 30
0.0
 0
SEQEND
 8
PARTS
 0
POLYLINE
 8
PARTS
 66
1
 10
0.0
 20
0.0
 30
0.0
 0
VERTEX
 8
PARTS
 10
 14.7900
 20
  4.4100
 30
0.0
 0
VERTEX
 8
PARTS
 10
 14.8100
 20
  4.4100
 30
0.0
 0
SEQEND
 8
PARTS
 0
TEXT
 8
PARTTEXT
 10
 14.7200
 20
  5.0386
 30
0.0
 40
  0.0514
 1
12V
 0
POLYLINE
 8
PARTS
 66
1
 10
0.0
 20
0.0
 30
0.0
 0
VERTEX
 8
PARTS
 10
 14.8300
 20
  4.9200
 30
0.0
 0
VERTEX
 8
PARTS
 10
 14.7700
 20
  4.9200
 30
0.0
 0
SEQEND
 8
PARTS
 0
POLYLINE
 8
PARTS
 66
1
 10
0.0
 20
0.0
 30
0.0
 0
VERTEX
 8
PARTS
 10
 14.8000
 20
  4.9200
 30
0.0
 0
VERTEX
 8
PARTS
 10
 14.8000
 20
  4.9000
 30
0.0
 0
SEQEND
 8
PARTS
 0
POLYLINE
 8
PARTS
 66
1
 10
0.0
 20
0.0
 30
0.0
 0
VERTEX
 8
PARTS
 10
 14.7700
 20
  4.9200
 30
0.0
 0
VERTEX
 8
PARTS
 10
 14.8000
 20
  5.0000
 30
0.0
 0
SEQEND
 8
PARTS
 0
POLYLINE
 8
PARTS
 66
1
 10
0.0
 20
0.0
 30
0.0
 0
VERTEX
 8
PARTS
 10
 14.8000
 20
  5.0000
 30
0.0
 0
VERTEX
 8
PARTS
 10
 14.8300
 20
  4.9200
 30
0.0
 0
SEQEND
 8
PARTS
 0
POLYLINE
 8
PARTS
 66
1
 10
0.0
 20
0.0
 30
0.0
 0
VERTEX
 8
PARTS
 10
 11.5000
 20
  7.6000
 30
0.0
 0
VERTEX
 8
PARTS
 10
 11.7000
 20
  7.6000
 30
0.0
 0
SEQEND
 8
PARTS
 0
POLYLINE
 8
PARTS
 66
1
 10
0.0
 20
0.0
 30
0.0
 0
VERTEX
 8
PARTS
 10
 11.5300
 20
  7.5700
 30
0.0
 0
VERTEX
 8
PARTS
 10
 11.6700
 20
  7.5700
 30
0.0
 0
SEQEND
 8
PARTS
 0
POLYLINE
 8
PARTS
 66
1
 10
0.0
 20
0.0
 30
0.0
 0
VERTEX
 8
PARTS
 10
 11.6400
 20
  7.5400
 30
0.0
 0
VERTEX
 8
PARTS
 10
 11.5600
 20
  7.5400
 30
0.0
 0
SEQEND
 8
PARTS
 0
POLYLINE
 8
PARTS
 66
1
 10
0.0
 20
0.0
 30
0.0
 0
VERTEX
 8
PARTS
 10
 11.5900
 20
  7.5100
 30
0.0
 0
VERTEX
 8
PARTS
 10
 11.6100
 20
  7.5100
 30
0.0
 0
SEQEND
 8
PARTS
 0
POLYLINE
 8
PARTS
 66
1
 10
0.0
 20
0.0
 30
0.0
 0
VERTEX
 8
PARTS
 10
 12.7000
 20
  4.1000
 30
0.0
 0
VERTEX
 8
PARTS
 10
 12.9000
 20
  4.1000
 30
0.0
 0
SEQEND
 8
PARTS
 0
POLYLINE
 8
PARTS
 66
1
 10
0.0
 20
0.0
 30
0.0
 0
VERTEX
 8
PARTS
 10
 12.7300
 20
  4.0700
 30
0.0
 0
VERTEX
 8
PARTS
 10
 12.8700
 20
  4.0700
 30
0.0
 0
SEQEND
 8
PARTS
 0
POLYLINE
 8
PARTS
 66
1
 10
0.0
 20
0.0
 30
0.0
 0
VERTEX
 8
PARTS
 10
 12.8400
 20
  4.0400
 30
0.0
 0
VERTEX
 8
PARTS
 10
 12.7600
 20
  4.0400
 30
0.0
 0
SEQEND
 8
PARTS
 0
POLYLINE
 8
PARTS
 66
1
 10
0.0
 20
0.0
 30
0.0
 0
VERTEX
 8
PARTS
 10
 12.7900
 20
  4.0100
 30
0.0
 0
VERTEX
 8
PARTS
 10
 12.8100
 20
  4.0100
 30
0.0
 0
SEQEND
 8
PARTS
 0
POLYLINE
 8
PARTS
 66
1
 10
0.0
 20
0.0
 30
0.0
 0
VERTEX
 8
PARTS
 10
  5.8000
 20
  5.1000
 30
0.0
 0
VERTEX
 8
PARTS
 10
  6.0000
 20
  5.1000
 30
0.0
 0
SEQEND
 8
PARTS
 0
POLYLINE
 8
PARTS
 66
1
 10
0.0
 20
0.0
 30
0.0
 0
VERTEX
 8
PARTS
 10
  5.8300
 20
  5.0700
 30
0.0
 0
VERTEX
 8
PARTS
 10
  5.9700
 20
  5.0700
 30
0.0
 0
SEQEND
 8
PARTS
 0
POLYLINE
 8
PARTS
 66
1
 10
0.0
 20
0.0
 30
0.0
 0
VERTEX
 8
PARTS
 10
  5.9400
 20
  5.0400
 30
0.0
 0
VERTEX
 8
PARTS
 10
  5.8600
 20
  5.0400
 30
0.0
 0
SEQEND
 8
PARTS
 0
POLYLINE
 8
PARTS
 66
1
 10
0.0
 20
0.0
 30
0.0
 0
VERTEX
 8
PARTS
 10
  5.8900
 20
  5.0100
 30
0.0
 0
VERTEX
 8
PARTS
 10
  5.9100
 20
  5.0100
 30
0.0
 0
SEQEND
 8
PARTS
 0
TEXT
 8
PARTTEXT
 10
 10.9400
 20
  8.4186
 30
0.0
 40
  0.0514
 1
5V
 0
POLYLINE
 8
PARTS
 66
1
 10
0.0
 20
0.0
 30
0.0
 0
VERTEX
 8
PARTS
 10
 11.0000
 20
  8.5000
 30
0.0
 0
VERTEX
 8
PARTS
 10
 11.0000
 20
  8.6000
 30
0.0
 0
SEQEND
 8
PARTS
 0
POLYLINE
 8
PARTS
 66
1
 10
0.0
 20
0.0
 30
0.0
 0
VERTEX
 8
PARTS
 10
 10.9500
 20
  8.5000
 30
0.0
 0
VERTEX
 8
PARTS
 10
 11.0500
 20
  8.5000
 30
0.0
 0
SEQEND
 8
PARTS
 0
POLYLINE
 8
PARTS
 66
1
 10
0.0
 20
0.0
 30
0.0
 0
VERTEX
 8
PARTS
 10
 11.1000
 20
  9.0000
 30
0.0
 0
VERTEX
 8
PARTS
 10
 10.9000
 20
  9.0000
 30
0.0
 0
SEQEND
 8
PARTS
 0
POLYLINE
 8
PARTS
 66
1
 10
0.0
 20
0.0
 30
0.0
 0
VERTEX
 8
PARTS
 10
 11.0700
 20
  9.0300
 30
0.0
 0
VERTEX
 8
PARTS
 10
 10.9300
 20
  9.0300
 30
0.0
 0
SEQEND
 8
PARTS
 0
POLYLINE
 8
PARTS
 66
1
 10
0.0
 20
0.0
 30
0.0
 0
VERTEX
 8
PARTS
 10
 10.9600
 20
  9.0600
 30
0.0
 0
VERTEX
 8
PARTS
 10
 11.0400
 20
  9.0600
 30
0.0
 0
SEQEND
 8
PARTS
 0
POLYLINE
 8
PARTS
 66
1
 10
0.0
 20
0.0
 30
0.0
 0
VERTEX
 8
PARTS
 10
 11.0100
 20
  9.0900
 30
0.0
 0
VERTEX
 8
PARTS
 10
 10.9900
 20
  9.0900
 30
0.0
 0
SEQEND
 8
PARTS
 0
TEXT
 8
PARTTEXT
 10
 11.9000
 20
  5.1186
 30
0.0
 40
  0.0514
 1
5V
 0
POLYLINE
 8
PARTS
 66
1
 10
0.0
 20
0.0
 30
0.0
 0
VERTEX
 8
PARTS
 10
 12.0000
 20
  5.1000
 30
0.0
 0
VERTEX
 8
PARTS
 10
 12.0000
 20
  5.0000
 30
0.0
 0
SEQEND
 8
PARTS
 0
POLYLINE
 8
PARTS
 66
1
 10
0.0
 20
0.0
 30
0.0
 0
VERTEX
 8
PARTS
 10
 11.9500
 20
  5.1000
 30
0.0
 0
VERTEX
 8
PARTS
 10
 12.0500
 20
  5.1000
 30
0.0
 0
SEQEND
 8
PARTS
 0
POLYLINE
 8
PARTS
 66
1
 10
0.0
 20
0.0
 30
0.0
 0
VERTEX
 8
PARTS
 10
 11.7000
 20
  5.8000
 30
0.0
 0
VERTEX
 8
PARTS
 10
 11.9000
 20
  5.8000
 30
0.0
 0
SEQEND
 8
PARTS
 0
POLYLINE
 8
PARTS
 66
1
 10
0.0
 20
0.0
 30
0.0
 0
VERTEX
 8
PARTS
 10
 11.7300
 20
  5.7700
 30
0.0
 0
VERTEX
 8
PARTS
 10
 11.8700
 20
  5.7700
 30
0.0
 0
SEQEND
 8
PARTS
 0
POLYLINE
 8
PARTS
 66
1
 10
0.0
 20
0.0
 30
0.0
 0
VERTEX
 8
PARTS
 10
 11.8400
 20
  5.7400
 30
0.0
 0
VERTEX
 8
PARTS
 10
 11.7600
 20
  5.7400
 30
0.0
 0
SEQEND
 8
PARTS
 0
POLYLINE
 8
PARTS
 66
1
 10
0.0
 20
0.0
 30
0.0
 0
VERTEX
 8
PARTS
 10
 11.7900
 20
  5.7100
 30
0.0
 0
VERTEX
 8
PARTS
 10
 11.8100
 20
  5.7100
 30
0.0
 0
SEQEND
 8
PARTS
 0
POLYLINE
 8
PARTS
 66
1
 10
0.0
 20
0.0
 30
0.0
 0
VERTEX
 8
PARTS
 10
  8.7000
 20
  9.0000
 30
0.0
 0
VERTEX
 8
PARTS
 10
  8.5000
 20
  9.0000
 30
0.0
 0
SEQEND
 8
PARTS
 0
POLYLINE
 8
PARTS
 66
1
 10
0.0
 20
0.0
 30
0.0
 0
VERTEX
 8
PARTS
 10
  8.6700
 20
  9.0300
 30
0.0
 0
VERTEX
 8
PARTS
 10
  8.5300
 20
  9.0300
 30
0.0
 0
SEQEND
 8
PARTS
 0
POLYLINE
 8
PARTS
 66
1
 10
0.0
 20
0.0
 30
0.0
 0
VERTEX
 8
PARTS
 10
  8.5600
 20
  9.0600
 30
0.0
 0
VERTEX
 8
PARTS
 10
  8.6400
 20
  9.0600
 30
0.0
 0
SEQEND
 8
PARTS
 0
POLYLINE
 8
PARTS
 66
1
 10
0.0
 20
0.0
 30
0.0
 0
VERTEX
 8
PARTS
 10
  8.6100
 20
  9.0900
 30
0.0
 0
VERTEX
 8
PARTS
 10
  8.5900
 20
  9.0900
 30
0.0
 0
SEQEND
 8
PARTS
 0
TEXT
 8
PARTTEXT
 10
 13.5200
 20
  5.2386
 30
0.0
 40
  0.0514
 1
12V
 0
POLYLINE
 8
PARTS
 66
1
 10
0.0
 20
0.0
 30
0.0
 0
VERTEX
 8
PARTS
 10
 13.6300
 20
  5.1200
 30
0.0
 0
VERTEX
 8
PARTS
 10
 13.5700
 20
  5.1200
 30
0.0
 0
SEQEND
 8
PARTS
 0
POLYLINE
 8
PARTS
 66
1
 10
0.0
 20
0.0
 30
0.0
 0
VERTEX
 8
PARTS
 10
 13.6000
 20
  5.1200
 30
0.0
 0
VERTEX
 8
PARTS
 10
 13.6000
 20
  5.1000
 30
0.0
 0
SEQEND
 8
PARTS
 0
POLYLINE
 8
PARTS
 66
1
 10
0.0
 20
0.0
 30
0.0
 0
VERTEX
 8
PARTS
 10
 13.5700
 20
  5.1200
 30
0.0
 0
VERTEX
 8
PARTS
 10
 13.6000
 20
  5.2000
 30
0.0
 0
SEQEND
 8
PARTS
 0
POLYLINE
 8
PARTS
 66
1
 10
0.0
 20
0.0
 30
0.0
 0
VERTEX
 8
PARTS
 10
 13.6000
 20
  5.2000
 30
0.0
 0
VERTEX
 8
PARTS
 10
 13.6300
 20
  5.1200
 30
0.0
 0
SEQEND
 8
PARTS
 0
TEXT
 8
PARTTEXT
 10
 14.7000
 20
  3.6186
 30
0.0
 40
  0.0514
 1
12Va
 0
POLYLINE
 8
PARTS
 66
1
 10
0.0
 20
0.0
 30
0.0
 0
VERTEX
 8
PARTS
 10
 14.8000
 20
  3.5400
 30
0.0
 0
VERTEX
 8
PARTS
 10
 14.8000
 20
  3.5000
 30
0.0
 0
SEQEND
 8
PARTS
 0
POLYLINE
 8
PARTS
 66
1
 70
1
 10
0.0
 20
0.0
 30
0.0
 0
VERTEX
 8
PARTS
 10
 14.8300
 20
  3.5700
 30
0.0
 42
  0.0985
 0
VERTEX
 8
PARTS
 10
 14.8277
 20
  3.5815
 30
0.0
 42
  0.0985
 0
VERTEX
 8
PARTS
 10
 14.8212
 20
  3.5912
 30
0.0
 42
  0.0985
 0
VERTEX
 8
PARTS
 10
 14.8115
 20
  3.5977
 30
0.0
 42
  0.0985
 0
VERTEX
 8
PARTS
 10
 14.8000
 20
  3.6000
 30
0.0
 42
  0.0985
 0
VERTEX
 8
PARTS
 10
 14.7885
 20
  3.5977
 30
0.0
 42
  0.0985
 0
VERTEX
 8
PARTS
 10
 14.7788
 20
  3.5912
 30
0.0
 42
  0.0985
 0
VERTEX
 8
PARTS
 10
 14.7723
 20
  3.5815
 30
0.0
 42
  0.0985
 0
VERTEX
 8
PARTS
 10
 14.7700
 20
  3.5700
 30
0.0
 42
  0.0985
 0
VERTEX
 8
PARTS
 10
 14.7723
 20
  3.5585
 30
0.0
 42
  0.0985
 0
VERTEX
 8
PARTS
 10
 14.7788
 20
  3.5488
 30
0.0
 42
  0.0985
 0
VERTEX
 8
PARTS
 10
 14.7885
 20
  3.5423
 30
0.0
 42
  0.0985
 0
VERTEX
 8
PARTS
 10
 14.8000
 20
  3.5400
 30
0.0
 42
  0.0985
 0
VERTEX
 8
PARTS
 10
 14.8115
 20
  3.5423
 30
0.0
 42
  0.0985
 0
VERTEX
 8
PARTS
 10
 14.8212
 20
  3.5488
 30
0.0
 42
  0.0985
 0
VERTEX
 8
PARTS
 10
 14.8277
 20
  3.5585
 30
0.0
 42
  0.0985
 0
SEQEND
 8
PARTS
 0
POLYLINE
 8
PARTS
 66
1
 10
0.0
 20
0.0
 30
0.0
 0
VERTEX
 8
PARTS
 10
  0.4000
 20
  5.4000
 30
0.0
 0
VERTEX
 8
PARTS
 10
  0.6000
 20
  5.4000
 30
0.0
 0
SEQEND
 8
PARTS
 0
POLYLINE
 8
PARTS
 66
1
 10
0.0
 20
0.0
 30
0.0
 0
VERTEX
 8
PARTS
 10
  0.4300
 20
  5.3700
 30
0.0
 0
VERTEX
 8
PARTS
 10
  0.5700
 20
  5.3700
 30
0.0
 0
SEQEND
 8
PARTS
 0
POLYLINE
 8
PARTS
 66
1
 10
0.0
 20
0.0
 30
0.0
 0
VERTEX
 8
PARTS
 10
  0.5400
 20
  5.3400
 30
0.0
 0
VERTEX
 8
PARTS
 10
  0.4600
 20
  5.3400
 30
0.0
 0
SEQEND
 8
PARTS
 0
POLYLINE
 8
PARTS
 66
1
 10
0.0
 20
0.0
 30
0.0
 0
VERTEX
 8
PARTS
 10
  0.4900
 20
  5.3100
 30
0.0
 0
VERTEX
 8
PARTS
 10
  0.5100
 20
  5.3100
 30
0.0
 0
SEQEND
 8
PARTS
 0
TEXT
 8
PARTTEXT
 10
  2.5000
 20
  9.5186
 30
0.0
 40
  0.0514
 1
5Va
 0
POLYLINE
 8
PARTS
 66
1
 10
0.0
 20
0.0
 30
0.0
 0
VERTEX
 8
PARTS
 10
  2.6000
 20
  9.4400
 30
0.0
 0
VERTEX
 8
PARTS
 10
  2.6000
 20
  9.4000
 30
0.0
 0
SEQEND
 8
PARTS
 0
POLYLINE
 8
PARTS
 66
1
 70
1
 10
0.0
 20
0.0
 30
0.0
 0
VERTEX
 8
PARTS
 10
  2.6300
 20
  9.4700
 30
0.0
 42
  0.0985
 0
VERTEX
 8
PARTS
 10
  2.6277
 20
  9.4815
 30
0.0
 42
  0.0985
 0
VERTEX
 8
PARTS
 10
  2.6212
 20
  9.4912
 30
0.0
 42
  0.0985
 0
VERTEX
 8
PARTS
 10
  2.6115
 20
  9.4977
 30
0.0
 42
  0.0985
 0
VERTEX
 8
PARTS
 10
  2.6000
 20
  9.5000
 30
0.0
 42
  0.0985
 0
VERTEX
 8
PARTS
 10
  2.5885
 20
  9.4977
 30
0.0
 42
  0.0985
 0
VERTEX
 8
PARTS
 10
  2.5788
 20
  9.4912
 30
0.0
 42
  0.0985
 0
VERTEX
 8
PARTS
 10
  2.5723
 20
  9.4815
 30
0.0
 42
  0.0985
 0
VERTEX
 8
PARTS
 10
  2.5700
 20
  9.4700
 30
0.0
 42
  0.0985
 0
VERTEX
 8
PARTS
 10
  2.5723
 20
  9.4585
 30
0.0
 42
  0.0985
 0
VERTEX
 8
PARTS
 10
  2.5788
 20
  9.4488
 30
0.0
 42
  0.0985
 0
VERTEX
 8
PARTS
 10
  2.5885
 20
  9.4423
 30
0.0
 42
  0.0985
 0
VERTEX
 8
PARTS
 10
  2.6000
 20
  9.4400
 30
0.0
 42
  0.0985
 0
VERTEX
 8
PARTS
 10
  2.6115
 20
  9.4423
 30
0.0
 42
  0.0985
 0
VERTEX
 8
PARTS
 10
  2.6212
 20
  9.4488
 30
0.0
 42
  0.0985
 0
VERTEX
 8
PARTS
 10
  2.6277
 20
  9.4585
 30
0.0
 42
  0.0985
 0
SEQEND
 8
PARTS
 0
POLYLINE
 8
PARTS
 66
1
 10
0.0
 20
0.0
 30
0.0
 0
VERTEX
 8
PARTS
 10
  6.5000
 20
  6.1000
 30
0.0
 0
VERTEX
 8
PARTS
 10
  6.7000
 20
  6.1000
 30
0.0
 0
SEQEND
 8
PARTS
 0
POLYLINE
 8
PARTS
 66
1
 10
0.0
 20
0.0
 30
0.0
 0
VERTEX
 8
PARTS
 10
  6.5300
 20
  6.0700
 30
0.0
 0
VERTEX
 8
PARTS
 10
  6.6700
 20
  6.0700
 30
0.0
 0
SEQEND
 8
PARTS
 0
POLYLINE
 8
PARTS
 66
1
 10
0.0
 20
0.0
 30
0.0
 0
VERTEX
 8
PARTS
 10
  6.6400
 20
  6.0400
 30
0.0
 0
VERTEX
 8
PARTS
 10
  6.5600
 20
  6.0400
 30
0.0
 0
SEQEND
 8
PARTS
 0
POLYLINE
 8
PARTS
 66
1
 10
0.0
 20
0.0
 30
0.0
 0
VERTEX
 8
PARTS
 10
  6.5900
 20
  6.0100
 30
0.0
 0
VERTEX
 8
PARTS
 10
  6.6100
 20
  6.0100
 30
0.0
 0
SEQEND
 8
PARTS
 0
POLYLINE
 8
PARTS
 66
1
 10
0.0
 20
0.0
 30
0.0
 0
VERTEX
 8
PARTS
 10
  5.8000
 20
  4.6000
 30
0.0
 0
VERTEX
 8
PARTS
 10
  6.0000
 20
  4.6000
 30
0.0
 0
SEQEND
 8
PARTS
 0
POLYLINE
 8
PARTS
 66
1
 10
0.0
 20
0.0
 30
0.0
 0
VERTEX
 8
PARTS
 10
  5.8300
 20
  4.5700
 30
0.0
 0
VERTEX
 8
PARTS
 10
  5.9700
 20
  4.5700
 30
0.0
 0
SEQEND
 8
PARTS
 0
POLYLINE
 8
PARTS
 66
1
 10
0.0
 20
0.0
 30
0.0
 0
VERTEX
 8
PARTS
 10
  5.9400
 20
  4.5400
 30
0.0
 0
VERTEX
 8
PARTS
 10
  5.8600
 20
  4.5400
 30
0.0
 0
SEQEND
 8
PARTS
 0
POLYLINE
 8
PARTS
 66
1
 10
0.0
 20
0.0
 30
0.0
 0
VERTEX
 8
PARTS
 10
  5.8900
 20
  4.5100
 30
0.0
 0
VERTEX
 8
PARTS
 10
  5.9100
 20
  4.5100
 30
0.0
 0
SEQEND
 8
PARTS
 0
TEXT
 8
PARTTEXT
 10
  6.2400
 20
  4.7386
 30
0.0
 40
  0.0514
 1
5V
 0
POLYLINE
 8
PARTS
 66
1
 10
0.0
 20
0.0
 30
0.0
 0
VERTEX
 8
PARTS
 10
  6.3000
 20
  4.7000
 30
0.0
 0
VERTEX
 8
PARTS
 10
  6.3000
 20
  4.6000
 30
0.0
 0
SEQEND
 8
PARTS
 0
POLYLINE
 8
PARTS
 66
1
 10
0.0
 20
0.0
 30
0.0
 0
VERTEX
 8
PARTS
 10
  6.3500
 20
  4.7000
 30
0.0
 0
VERTEX
 8
PARTS
 10
  6.2500
 20
  4.7000
 30
0.0
 0
SEQEND
 8
PARTS
 0
POLYLINE
 8
PARTS
 66
1
 10
0.0
 20
0.0
 30
0.0
 0
VERTEX
 8
PARTS
 10
  2.2000
 20
  5.4000
 30
0.0
 0
VERTEX
 8
PARTS
 10
  2.4000
 20
  5.4000
 30
0.0
 0
SEQEND
 8
PARTS
 0
POLYLINE
 8
PARTS
 66
1
 10
0.0
 20
0.0
 30
0.0
 0
VERTEX
 8
PARTS
 10
  2.4000
 20
  5.4000
 30
0.0
 0
VERTEX
 8
PARTS
 10
  2.3000
 20
  5.3000
 30
0.0
 0
SEQEND
 8
PARTS
 0
POLYLINE
 8
PARTS
 66
1
 10
0.0
 20
0.0
 30
0.0
 0
VERTEX
 8
PARTS
 10
  2.3000
 20
  5.3000
 30
0.0
 0
VERTEX
 8
PARTS
 10
  2.2000
 20
  5.4000
 30
0.0
 0
SEQEND
 8
PARTS
 0
POLYLINE
 8
PARTS
 66
1
 10
0.0
 20
0.0
 30
0.0
 0
VERTEX
 8
PARTS
 10
 14.7000
 20
  3.1000
 30
0.0
 0
VERTEX
 8
PARTS
 10
 14.9000
 20
  3.1000
 30
0.0
 0
SEQEND
 8
PARTS
 0
POLYLINE
 8
PARTS
 66
1
 10
0.0
 20
0.0
 30
0.0
 0
VERTEX
 8
PARTS
 10
 14.9000
 20
  3.1000
 30
0.0
 0
VERTEX
 8
PARTS
 10
 14.8000
 20
  3.0000
 30
0.0
 0
SEQEND
 8
PARTS
 0
POLYLINE
 8
PARTS
 66
1
 10
0.0
 20
0.0
 30
0.0
 0
VERTEX
 8
PARTS
 10
 14.8000
 20
  3.0000
 30
0.0
 0
VERTEX
 8
PARTS
 10
 14.7000
 20
  3.1000
 30
0.0
 0
SEQEND
 8
PARTS
 0
POLYLINE
 8
PARTS
 66
1
 10
0.0
 20
0.0
 30
0.0
 0
VERTEX
 8
PARTS
 10
  0.4000
 20
  0.3000
 30
0.0
 0
VERTEX
 8
PARTS
 10
  0.6000
 20
  0.3000
 30
0.0
 0
SEQEND
 8
PARTS
 0
POLYLINE
 8
PARTS
 66
1
 10
0.0
 20
0.0
 30
0.0
 0
VERTEX
 8
PARTS
 10
  0.4300
 20
  0.2700
 30
0.0
 0
VERTEX
 8
PARTS
 10
  0.5700
 20
  0.2700
 30
0.0
 0
SEQEND
 8
PARTS
 0
POLYLINE
 8
PARTS
 66
1
 10
0.0
 20
0.0
 30
0.0
 0
VERTEX
 8
PARTS
 10
  0.5400
 20
  0.2400
 30
0.0
 0
VERTEX
 8
PARTS
 10
  0.4600
 20
  0.2400
 30
0.0
 0
SEQEND
 8
PARTS
 0
POLYLINE
 8
PARTS
 66
1
 10
0.0
 20
0.0
 30
0.0
 0
VERTEX
 8
PARTS
 10
  0.4900
 20
  0.2100
 30
0.0
 0
VERTEX
 8
PARTS
 10
  0.5100
 20
  0.2100
 30
0.0
 0
SEQEND
 8
PARTS
 0
TEXT
 8
PARTTEXT
 10
  2.5000
 20
  5.1186
 30
0.0
 40
  0.0514
 1
5Va
 0
POLYLINE
 8
PARTS
 66
1
 10
0.0
 20
0.0
 30
0.0
 0
VERTEX
 8
PARTS
 10
  2.6000
 20
  5.0400
 30
0.0
 0
VERTEX
 8
PARTS
 10
  2.6000
 20
  5.0000
 30
0.0
 0
SEQEND
 8
PARTS
 0
POLYLINE
 8
PARTS
 66
1
 70
1
 10
0.0
 20
0.0
 30
0.0
 0
VERTEX
 8
PARTS
 10
  2.6300
 20
  5.0700
 30
0.0
 42
  0.0985
 0
VERTEX
 8
PARTS
 10
  2.6277
 20
  5.0815
 30
0.0
 42
  0.0985
 0
VERTEX
 8
PARTS
 10
  2.6212
 20
  5.0912
 30
0.0
 42
  0.0985
 0
VERTEX
 8
PARTS
 10
  2.6115
 20
  5.0977
 30
0.0
 42
  0.0985
 0
VERTEX
 8
PARTS
 10
  2.6000
 20
  5.1000
 30
0.0
 42
  0.0985
 0
VERTEX
 8
PARTS
 10
  2.5885
 20
  5.0977
 30
0.0
 42
  0.0985
 0
VERTEX
 8
PARTS
 10
  2.5788
 20
  5.0912
 30
0.0
 42
  0.0985
 0
VERTEX
 8
PARTS
 10
  2.5723
 20
  5.0815
 30
0.0
 42
  0.0985
 0
VERTEX
 8
PARTS
 10
  2.5700
 20
  5.0700
 30
0.0
 42
  0.0985
 0
VERTEX
 8
PARTS
 10
  2.5723
 20
  5.0585
 30
0.0
 42
  0.0985
 0
VERTEX
 8
PARTS
 10
  2.5788
 20
  5.0488
 30
0.0
 42
  0.0985
 0
VERTEX
 8
PARTS
 10
  2.5885
 20
  5.0423
 30
0.0
 42
  0.0985
 0
VERTEX
 8
PARTS
 10
  2.6000
 20
  5.0400
 30
0.0
 42
  0.0985
 0
VERTEX
 8
PARTS
 10
  2.6115
 20
  5.0423
 30
0.0
 42
  0.0985
 0
VERTEX
 8
PARTS
 10
  2.6212
 20
  5.0488
 30
0.0
 42
  0.0985
 0
VERTEX
 8
PARTS
 10
  2.6277
 20
  5.0585
 30
0.0
 42
  0.0985
 0
SEQEND
 8
PARTS
 0
POLYLINE
 8
PARTS
 66
1
 10
0.0
 20
0.0
 30
0.0
 0
VERTEX
 8
PARTS
 10
  2.2000
 20
  0.3000
 30
0.0
 0
VERTEX
 8
PARTS
 10
  2.4000
 20
  0.3000
 30
0.0
 0
SEQEND
 8
PARTS
 0
POLYLINE
 8
PARTS
 66
1
 10
0.0
 20
0.0
 30
0.0
 0
VERTEX
 8
PARTS
 10
  2.4000
 20
  0.3000
 30
0.0
 0
VERTEX
 8
PARTS
 10
  2.3000
 20
  0.2000
 30
0.0
 0
SEQEND
 8
PARTS
 0
POLYLINE
 8
PARTS
 66
1
 10
0.0
 20
0.0
 30
0.0
 0
VERTEX
 8
PARTS
 10
  2.3000
 20
  0.2000
 30
0.0
 0
VERTEX
 8
PARTS
 10
  2.2000
 20
  0.3000
 30
0.0
 0
SEQEND
 8
PARTS
 0
POLYLINE
 8
PARTS
 66
1
 10
0.0
 20
0.0
 30
0.0
 0
VERTEX
 8
PARTS
 10
  5.2000
 20
  2.9000
 30
0.0
 0
VERTEX
 8
PARTS
 10
  5.4000
 20
  2.9000
 30
0.0
 0
SEQEND
 8
PARTS
 0
POLYLINE
 8
PARTS
 66
1
 10
0.0
 20
0.0
 30
0.0
 0
VERTEX
 8
PARTS
 10
  5.4000
 20
  2.9000
 30
0.0
 0
VERTEX
 8
PARTS
 10
  5.3000
 20
  2.8000
 30
0.0
 0
SEQEND
 8
PARTS
 0
POLYLINE
 8
PARTS
 66
1
 10
0.0
 20
0.0
 30
0.0
 0
VERTEX
 8
PARTS
 10
  5.3000
 20
  2.8000
 30
0.0
 0
VERTEX
 8
PARTS
 10
  5.2000
 20
  2.9000
 30
0.0
 0
SEQEND
 8
PARTS
 0
TEXT
 8
PARTTEXT
 10
  5.2000
 20
  4.4186
 30
0.0
 40
  0.0514
 1
5Va
 0
POLYLINE
 8
PARTS
 66
1
 10
0.0
 20
0.0
 30
0.0
 0
VERTEX
 8
PARTS
 10
  5.3000
 20
  4.3400
 30
0.0
 0
VERTEX
 8
PARTS
 10
  5.3000
 20
  4.3000
 30
0.0
 0
SEQEND
 8
PARTS
 0
POLYLINE
 8
PARTS
 66
1
 70
1
 10
0.0
 20
0.0
 30
0.0
 0
VERTEX
 8
PARTS
 10
  5.3300
 20
  4.3700
 30
0.0
 42
  0.0985
 0
VERTEX
 8
PARTS
 10
  5.3277
 20
  4.3815
 30
0.0
 42
  0.0985
 0
VERTEX
 8
PARTS
 10
  5.3212
 20
  4.3912
 30
0.0
 42
  0.0985
 0
VERTEX
 8
PARTS
 10
  5.3115
 20
  4.3977
 30
0.0
 42
  0.0985
 0
VERTEX
 8
PARTS
 10
  5.3000
 20
  4.4000
 30
0.0
 42
  0.0985
 0
VERTEX
 8
PARTS
 10
  5.2885
 20
  4.3977
 30
0.0
 42
  0.0985
 0
VERTEX
 8
PARTS
 10
  5.2788
 20
  4.3912
 30
0.0
 42
  0.0985
 0
VERTEX
 8
PARTS
 10
  5.2723
 20
  4.3815
 30
0.0
 42
  0.0985
 0
VERTEX
 8
PARTS
 10
  5.2700
 20
  4.3700
 30
0.0
 42
  0.0985
 0
VERTEX
 8
PARTS
 10
  5.2723
 20
  4.3585
 30
0.0
 42
  0.0985
 0
VERTEX
 8
PARTS
 10
  5.2788
 20
  4.3488
 30
0.0
 42
  0.0985
 0
VERTEX
 8
PARTS
 10
  5.2885
 20
  4.3423
 30
0.0
 42
  0.0985
 0
VERTEX
 8
PARTS
 10
  5.3000
 20
  4.3400
 30
0.0
 42
  0.0985
 0
VERTEX
 8
PARTS
 10
  5.3115
 20
  4.3423
 30
0.0
 42
  0.0985
 0
VERTEX
 8
PARTS
 10
  5.3212
 20
  4.3488
 30
0.0
 42
  0.0985
 0
VERTEX
 8
PARTS
 10
  5.3277
 20
  4.3585
 30
0.0
 42
  0.0985
 0
SEQEND
 8
PARTS
 0
TEXT
 8
PARTTEXT
 10
  3.9000
 20
  4.4186
 30
0.0
 40
  0.0514
 1
12Va
 0
POLYLINE
 8
PARTS
 66
1
 10
0.0
 20
0.0
 30
0.0
 0
VERTEX
 8
PARTS
 10
  4.0000
 20
  4.3400
 30
0.0
 0
VERTEX
 8
PARTS
 10
  4.0000
 20
  4.3000
 30
0.0
 0
SEQEND
 8
PARTS
 0
POLYLINE
 8
PARTS
 66
1
 70
1
 10
0.0
 20
0.0
 30
0.0
 0
VERTEX
 8
PARTS
 10
  4.0300
 20
  4.3700
 30
0.0
 42
  0.0985
 0
VERTEX
 8
PARTS
 10
  4.0277
 20
  4.3815
 30
0.0
 42
  0.0985
 0
VERTEX
 8
PARTS
 10
  4.0212
 20
  4.3912
 30
0.0
 42
  0.0985
 0
VERTEX
 8
PARTS
 10
  4.0115
 20
  4.3977
 30
0.0
 42
  0.0985
 0
VERTEX
 8
PARTS
 10
  4.0000
 20
  4.4000
 30
0.0
 42
  0.0985
 0
VERTEX
 8
PARTS
 10
  3.9885
 20
  4.3977
 30
0.0
 42
  0.0985
 0
VERTEX
 8
PARTS
 10
  3.9788
 20
  4.3912
 30
0.0
 42
  0.0985
 0
VERTEX
 8
PARTS
 10
  3.9723
 20
  4.3815
 30
0.0
 42
  0.0985
 0
VERTEX
 8
PARTS
 10
  3.9700
 20
  4.3700
 30
0.0
 42
  0.0985
 0
VERTEX
 8
PARTS
 10
  3.9723
 20
  4.3585
 30
0.0
 42
  0.0985
 0
VERTEX
 8
PARTS
 10
  3.9788
 20
  4.3488
 30
0.0
 42
  0.0985
 0
VERTEX
 8
PARTS
 10
  3.9885
 20
  4.3423
 30
0.0
 42
  0.0985
 0
VERTEX
 8
PARTS
 10
  4.0000
 20
  4.3400
 30
0.0
 42
  0.0985
 0
VERTEX
 8
PARTS
 10
  4.0115
 20
  4.3423
 30
0.0
 42
  0.0985
 0
VERTEX
 8
PARTS
 10
  4.0212
 20
  4.3488
 30
0.0
 42
  0.0985
 0
VERTEX
 8
PARTS
 10
  4.0277
 20
  4.3585
 30
0.0
 42
  0.0985
 0
SEQEND
 8
PARTS
 0
TEXT
 8
PARTTEXT
 10
  2.5000
 20
  1.1186
 30
0.0
 40
  0.0514
 1
X3
 0
POLYLINE
 8
PARTS
 66
1
 10
0.0
 20
0.0
 30
0.0
 0
VERTEX
 8
PARTS
 10
  2.6000
 20
  1.0400
 30
0.0
 0
VERTEX
 8
PARTS
 10
  2.6000
 20
  1.0000
 30
0.0
 0
SEQEND
 8
PARTS
 0
POLYLINE
 8
PARTS
 66
1
 70
1
 10
0.0
 20
0.0
 30
0.0
 0
VERTEX
 8
PARTS
 10
  2.6300
 20
  1.0700
 30
0.0
 42
  0.0985
 0
VERTEX
 8
PARTS
 10
  2.6277
 20
  1.0815
 30
0.0
 42
  0.0985
 0
VERTEX
 8
PARTS
 10
  2.6212
 20
  1.0912
 30
0.0
 42
  0.0985
 0
VERTEX
 8
PARTS
 10
  2.6115
 20
  1.0977
 30
0.0
 42
  0.0985
 0
VERTEX
 8
PARTS
 10
  2.6000
 20
  1.1000
 30
0.0
 42
  0.0985
 0
VERTEX
 8
PARTS
 10
  2.5885
 20
  1.0977
 30
0.0
 42
  0.0985
 0
VERTEX
 8
PARTS
 10
  2.5788
 20
  1.0912
 30
0.0
 42
  0.0985
 0
VERTEX
 8
PARTS
 10
  2.5723
 20
  1.0815
 30
0.0
 42
  0.0985
 0
VERTEX
 8
PARTS
 10
  2.5700
 20
  1.0700
 30
0.0
 42
  0.0985
 0
VERTEX
 8
PARTS
 10
  2.5723
 20
  1.0585
 30
0.0
 42
  0.0985
 0
VERTEX
 8
PARTS
 10
  2.5788
 20
  1.0488
 30
0.0
 42
  0.0985
 0
VERTEX
 8
PARTS
 10
  2.5885
 20
  1.0423
 30
0.0
 42
  0.0985
 0
VERTEX
 8
PARTS
 10
  2.6000
 20
  1.0400
 30
0.0
 42
  0.0985
 0
VERTEX
 8
PARTS
 10
  2.6115
 20
  1.0423
 30
0.0
 42
  0.0985
 0
VERTEX
 8
PARTS
 10
  2.6212
 20
  1.0488
 30
0.0
 42
  0.0985
 0
VERTEX
 8
PARTS
 10
  2.6277
 20
  1.0585
 30
0.0
 42
  0.0985
 0
SEQEND
 8
PARTS
 0
TEXT
 8
PARTTEXT
 10
 11.9000
 20
  3.7186
 30
0.0
 40
  0.0514
 1
5Va
 0
POLYLINE
 8
PARTS
 66
1
 10
0.0
 20
0.0
 30
0.0
 0
VERTEX
 8
PARTS
 10
 12.0000
 20
  3.6400
 30
0.0
 0
VERTEX
 8
PARTS
 10
 12.0000
 20
  3.6000
 30
0.0
 0
SEQEND
 8
PARTS
 0
POLYLINE
 8
PARTS
 66
1
 70
1
 10
0.0
 20
0.0
 30
0.0
 0
VERTEX
 8
PARTS
 10
 12.0300
 20
  3.6700
 30
0.0
 42
  0.0985
 0
VERTEX
 8
PARTS
 10
 12.0277
 20
  3.6815
 30
0.0
 42
  0.0985
 0
VERTEX
 8
PARTS
 10
 12.0212
 20
  3.6912
 30
0.0
 42
  0.0985
 0
VERTEX
 8
PARTS
 10
 12.0115
 20
  3.6977
 30
0.0
 42
  0.0985
 0
VERTEX
 8
PARTS
 10
 12.0000
 20
  3.7000
 30
0.0
 42
  0.0985
 0
VERTEX
 8
PARTS
 10
 11.9885
 20
  3.6977
 30
0.0
 42
  0.0985
 0
VERTEX
 8
PARTS
 10
 11.9788
 20
  3.6912
 30
0.0
 42
  0.0985
 0
VERTEX
 8
PARTS
 10
 11.9723
 20
  3.6815
 30
0.0
 42
  0.0985
 0
VERTEX
 8
PARTS
 10
 11.9700
 20
  3.6700
 30
0.0
 42
  0.0985
 0
VERTEX
 8
PARTS
 10
 11.9723
 20
  3.6585
 30
0.0
 42
  0.0985
 0
VERTEX
 8
PARTS
 10
 11.9788
 20
  3.6488
 30
0.0
 42
  0.0985
 0
VERTEX
 8
PARTS
 10
 11.9885
 20
  3.6423
 30
0.0
 42
  0.0985
 0
VERTEX
 8
PARTS
 10
 12.0000
 20
  3.6400
 30
0.0
 42
  0.0985
 0
VERTEX
 8
PARTS
 10
 12.0115
 20
  3.6423
 30
0.0
 42
  0.0985
 0
VERTEX
 8
PARTS
 10
 12.0212
 20
  3.6488
 30
0.0
 42
  0.0985
 0
VERTEX
 8
PARTS
 10
 12.0277
 20
  3.6585
 30
0.0
 42
  0.0985
 0
SEQEND
 8
PARTS
 0
TEXT
 8
PARTTEXT
 10
 13.5000
 20
  3.8186
 30
0.0
 40
  0.0514
 1
12Va
 0
POLYLINE
 8
PARTS
 66
1
 10
0.0
 20
0.0
 30
0.0
 0
VERTEX
 8
PARTS
 10
 13.6000
 20
  3.7400
 30
0.0
 0
VERTEX
 8
PARTS
 10
 13.6000
 20
  3.7000
 30
0.0
 0
SEQEND
 8
PARTS
 0
POLYLINE
 8
PARTS
 66
1
 70
1
 10
0.0
 20
0.0
 30
0.0
 0
VERTEX
 8
PARTS
 10
 13.6300
 20
  3.7700
 30
0.0
 42
  0.0985
 0
VERTEX
 8
PARTS
 10
 13.6277
 20
  3.7815
 30
0.0
 42
  0.0985
 0
VERTEX
 8
PARTS
 10
 13.6212
 20
  3.7912
 30
0.0
 42
  0.0985
 0
VERTEX
 8
PARTS
 10
 13.6115
 20
  3.7977
 30
0.0
 42
  0.0985
 0
VERTEX
 8
PARTS
 10
 13.6000
 20
  3.8000
 30
0.0
 42
  0.0985
 0
VERTEX
 8
PARTS
 10
 13.5885
 20
  3.7977
 30
0.0
 42
  0.0985
 0
VERTEX
 8
PARTS
 10
 13.5788
 20
  3.7912
 30
0.0
 42
  0.0985
 0
VERTEX
 8
PARTS
 10
 13.5723
 20
  3.7815
 30
0.0
 42
  0.0985
 0
VERTEX
 8
PARTS
 10
 13.5700
 20
  3.7700
 30
0.0
 42
  0.0985
 0
VERTEX
 8
PARTS
 10
 13.5723
 20
  3.7585
 30
0.0
 42
  0.0985
 0
VERTEX
 8
PARTS
 10
 13.5788
 20
  3.7488
 30
0.0
 42
  0.0985
 0
VERTEX
 8
PARTS
 10
 13.5885
 20
  3.7423
 30
0.0
 42
  0.0985
 0
VERTEX
 8
PARTS
 10
 13.6000
 20
  3.7400
 30
0.0
 42
  0.0985
 0
VERTEX
 8
PARTS
 10
 13.6115
 20
  3.7423
 30
0.0
 42
  0.0985
 0
VERTEX
 8
PARTS
 10
 13.6212
 20
  3.7488
 30
0.0
 42
  0.0985
 0
VERTEX
 8
PARTS
 10
 13.6277
 20
  3.7585
 30
0.0
 42
  0.0985
 0
SEQEND
 8
PARTS
 0
POLYLINE
 8
PARTS
 66
1
 10
0.0
 20
0.0
 30
0.0
 0
VERTEX
 8
PARTS
 10
 12.7000
 20
  2.7000
 30
0.0
 0
VERTEX
 8
PARTS
 10
 12.9000
 20
  2.7000
 30
0.0
 0
SEQEND
 8
PARTS
 0
POLYLINE
 8
PARTS
 66
1
 10
0.0
 20
0.0
 30
0.0
 0
VERTEX
 8
PARTS
 10
 12.9000
 20
  2.7000
 30
0.0
 0
VERTEX
 8
PARTS
 10
 12.8000
 20
  2.6000
 30
0.0
 0
SEQEND
 8
PARTS
 0
POLYLINE
 8
PARTS
 66
1
 10
0.0
 20
0.0
 30
0.0
 0
VERTEX
 8
PARTS
 10
 12.8000
 20
  2.6000
 30
0.0
 0
VERTEX
 8
PARTS
 10
 12.7000
 20
  2.7000
 30
0.0
 0
SEQEND
 8
PARTS
 0
POLYLINE
 8
PARTS
 66
1
 10
0.0
 20
0.0
 30
0.0
 0
VERTEX
 8
PARTS
 10
  3.8000
 20
  2.0000
 30
0.0
 0
VERTEX
 8
PARTS
 10
  4.0000
 20
  2.0000
 30
0.0
 0
SEQEND
 8
PARTS
 0
POLYLINE
 8
PARTS
 66
1
 10
0.0
 20
0.0
 30
0.0
 0
VERTEX
 8
PARTS
 10
  3.8300
 20
  1.9700
 30
0.0
 0
VERTEX
 8
PARTS
 10
  3.9700
 20
  1.9700
 30
0.0
 0
SEQEND
 8
PARTS
 0
POLYLINE
 8
PARTS
 66
1
 10
0.0
 20
0.0
 30
0.0
 0
VERTEX
 8
PARTS
 10
  3.9400
 20
  1.9400
 30
0.0
 0
VERTEX
 8
PARTS
 10
  3.8600
 20
  1.9400
 30
0.0
 0
SEQEND
 8
PARTS
 0
POLYLINE
 8
PARTS
 66
1
 10
0.0
 20
0.0
 30
0.0
 0
VERTEX
 8
PARTS
 10
  3.8900
 20
  1.9100
 30
0.0
 0
VERTEX
 8
PARTS
 10
  3.9100
 20
  1.9100
 30
0.0
 0
SEQEND
 8
PARTS
 0
POLYLINE
 8
PARTS
 66
1
 10
0.0
 20
0.0
 30
0.0
 0
VERTEX
 8
PARTS
 10
 12.3000
 20
  1.6000
 30
0.0
 0
VERTEX
 8
PARTS
 10
 12.5000
 20
  1.6000
 30
0.0
 0
SEQEND
 8
PARTS
 0
POLYLINE
 8
PARTS
 66
1
 10
0.0
 20
0.0
 30
0.0
 0
VERTEX
 8
PARTS
 10
 12.5000
 20
  1.6000
 30
0.0
 0
VERTEX
 8
PARTS
 10
 12.4000
 20
  1.5000
 30
0.0
 0
SEQEND
 8
PARTS
 0
POLYLINE
 8
PARTS
 66
1
 10
0.0
 20
0.0
 30
0.0
 0
VERTEX
 8
PARTS
 10
 12.4000
 20
  1.5000
 30
0.0
 0
VERTEX
 8
PARTS
 10
 12.3000
 20
  1.6000
 30
0.0
 0
SEQEND
 8
PARTS
 0
TEXT
 8
PARTTEXT
 10
 12.4000
 20
  2.1186
 30
0.0
 40
  0.0514
 1
X1
 0
POLYLINE
 8
PARTS
 66
1
 10
0.0
 20
0.0
 30
0.0
 0
VERTEX
 8
PARTS
 10
 12.4000
 20
  2.0400
 30
0.0
 0
VERTEX
 8
PARTS
 10
 12.4000
 20
  2.0000
 30
0.0
 0
SEQEND
 8
PARTS
 0
POLYLINE
 8
PARTS
 66
1
 70
1
 10
0.0
 20
0.0
 30
0.0
 0
VERTEX
 8
PARTS
 10
 12.4300
 20
  2.0700
 30
0.0
 42
  0.0985
 0
VERTEX
 8
PARTS
 10
 12.4277
 20
  2.0815
 30
0.0
 42
  0.0985
 0
VERTEX
 8
PARTS
 10
 12.4212
 20
  2.0912
 30
0.0
 42
  0.0985
 0
VERTEX
 8
PARTS
 10
 12.4115
 20
  2.0977
 30
0.0
 42
  0.0985
 0
VERTEX
 8
PARTS
 10
 12.4000
 20
  2.1000
 30
0.0
 42
  0.0985
 0
VERTEX
 8
PARTS
 10
 12.3885
 20
  2.0977
 30
0.0
 42
  0.0985
 0
VERTEX
 8
PARTS
 10
 12.3788
 20
  2.0912
 30
0.0
 42
  0.0985
 0
VERTEX
 8
PARTS
 10
 12.3723
 20
  2.0815
 30
0.0
 42
  0.0985
 0
VERTEX
 8
PARTS
 10
 12.3700
 20
  2.0700
 30
0.0
 42
  0.0985
 0
VERTEX
 8
PARTS
 10
 12.3723
 20
  2.0585
 30
0.0
 42
  0.0985
 0
VERTEX
 8
PARTS
 10
 12.3788
 20
  2.0488
 30
0.0
 42
  0.0985
 0
VERTEX
 8
PARTS
 10
 12.3885
 20
  2.0423
 30
0.0
 42
  0.0985
 0
VERTEX
 8
PARTS
 10
 12.4000
 20
  2.0400
 30
0.0
 42
  0.0985
 0
VERTEX
 8
PARTS
 10
 12.4115
 20
  2.0423
 30
0.0
 42
  0.0985
 0
VERTEX
 8
PARTS
 10
 12.4212
 20
  2.0488
 30
0.0
 42
  0.0985
 0
VERTEX
 8
PARTS
 10
 12.4277
 20
  2.0585
 30
0.0
 42
  0.0985
 0
SEQEND
 8
PARTS
 0
POLYLINE
 8
PARTS
 66
1
 10
0.0
 20
0.0
 30
0.0
 0
VERTEX
 8
PARTS
 10
 13.1000
 20
  1.6000
 30
0.0
 0
VERTEX
 8
PARTS
 10
 13.3000
 20
  1.6000
 30
0.0
 0
SEQEND
 8
PARTS
 0
POLYLINE
 8
PARTS
 66
1
 10
0.0
 20
0.0
 30
0.0
 0
VERTEX
 8
PARTS
 10
 13.3000
 20
  1.6000
 30
0.0
 0
VERTEX
 8
PARTS
 10
 13.2000
 20
  1.5000
 30
0.0
 0
SEQEND
 8
PARTS
 0
POLYLINE
 8
PARTS
 66
1
 10
0.0
 20
0.0
 30
0.0
 0
VERTEX
 8
PARTS
 10
 13.2000
 20
  1.5000
 30
0.0
 0
VERTEX
 8
PARTS
 10
 13.1000
 20
  1.6000
 30
0.0
 0
SEQEND
 8
PARTS
 0
TEXT
 8
PARTTEXT
 10
 13.2000
 20
  2.1186
 30
0.0
 40
  0.0514
 1
X2
 0
POLYLINE
 8
PARTS
 66
1
 10
0.0
 20
0.0
 30
0.0
 0
VERTEX
 8
PARTS
 10
 13.2000
 20
  2.0400
 30
0.0
 0
VERTEX
 8
PARTS
 10
 13.2000
 20
  2.0000
 30
0.0
 0
SEQEND
 8
PARTS
 0
POLYLINE
 8
PARTS
 66
1
 70
1
 10
0.0
 20
0.0
 30
0.0
 0
VERTEX
 8
PARTS
 10
 13.2300
 20
  2.0700
 30
0.0
 42
  0.0985
 0
VERTEX
 8
PARTS
 10
 13.2277
 20
  2.0815
 30
0.0
 42
  0.0985
 0
VERTEX
 8
PARTS
 10
 13.2212
 20
  2.0912
 30
0.0
 42
  0.0985
 0
VERTEX
 8
PARTS
 10
 13.2115
 20
  2.0977
 30
0.0
 42
  0.0985
 0
VERTEX
 8
PARTS
 10
 13.2000
 20
  2.1000
 30
0.0
 42
  0.0985
 0
VERTEX
 8
PARTS
 10
 13.1885
 20
  2.0977
 30
0.0
 42
  0.0985
 0
VERTEX
 8
PARTS
 10
 13.1788
 20
  2.0912
 30
0.0
 42
  0.0985
 0
VERTEX
 8
PARTS
 10
 13.1723
 20
  2.0815
 30
0.0
 42
  0.0985
 0
VERTEX
 8
PARTS
 10
 13.1700
 20
  2.0700
 30
0.0
 42
  0.0985
 0
VERTEX
 8
PARTS
 10
 13.1723
 20
  2.0585
 30
0.0
 42
  0.0985
 0
VERTEX
 8
PARTS
 10
 13.1788
 20
  2.0488
 30
0.0
 42
  0.0985
 0
VERTEX
 8
PARTS
 10
 13.1885
 20
  2.0423
 30
0.0
 42
  0.0985
 0
VERTEX
 8
PARTS
 10
 13.2000
 20
  2.0400
 30
0.0
 42
  0.0985
 0
VERTEX
 8
PARTS
 10
 13.2115
 20
  2.0423
 30
0.0
 42
  0.0985
 0
VERTEX
 8
PARTS
 10
 13.2212
 20
  2.0488
 30
0.0
 42
  0.0985
 0
VERTEX
 8
PARTS
 10
 13.2277
 20
  2.0585
 30
0.0
 42
  0.0985
 0
SEQEND
 8
PARTS
 0
TEXT
 8
PARTTEXT
 10
 14.0000
 20
  2.1186
 30
0.0
 40
  0.0514
 1
X3
 0
POLYLINE
 8
PARTS
 66
1
 10
0.0
 20
0.0
 30
0.0
 0
VERTEX
 8
PARTS
 10
 14.0000
 20
  2.0400
 30
0.0
 0
VERTEX
 8
PARTS
 10
 14.0000
 20
  2.0000
 30
0.0
 0
SEQEND
 8
PARTS
 0
POLYLINE
 8
PARTS
 66
1
 70
1
 10
0.0
 20
0.0
 30
0.0
 0
VERTEX
 8
PARTS
 10
 14.0300
 20
  2.0700
 30
0.0
 42
  0.0985
 0
VERTEX
 8
PARTS
 10
 14.0277
 20
  2.0815
 30
0.0
 42
  0.0985
 0
VERTEX
 8
PARTS
 10
 14.0212
 20
  2.0912
 30
0.0
 42
  0.0985
 0
VERTEX
 8
PARTS
 10
 14.0115
 20
  2.0977
 30
0.0
 42
  0.0985
 0
VERTEX
 8
PARTS
 10
 14.0000
 20
  2.1000
 30
0.0
 42
  0.0985
 0
VERTEX
 8
PARTS
 10
 13.9885
 20
  2.0977
 30
0.0
 42
  0.0985
 0
VERTEX
 8
PARTS
 10
 13.9788
 20
  2.0912
 30
0.0
 42
  0.0985
 0
VERTEX
 8
PARTS
 10
 13.9723
 20
  2.0815
 30
0.0
 42
  0.0985
 0
VERTEX
 8
PARTS
 10
 13.9700
 20
  2.0700
 30
0.0
 42
  0.0985
 0
VERTEX
 8
PARTS
 10
 13.9723
 20
  2.0585
 30
0.0
 42
  0.0985
 0
VERTEX
 8
PARTS
 10
 13.9788
 20
  2.0488
 30
0.0
 42
  0.0985
 0
VERTEX
 8
PARTS
 10
 13.9885
 20
  2.0423
 30
0.0
 42
  0.0985
 0
VERTEX
 8
PARTS
 10
 14.0000
 20
  2.0400
 30
0.0
 42
  0.0985
 0
VERTEX
 8
PARTS
 10
 14.0115
 20
  2.0423
 30
0.0
 42
  0.0985
 0
VERTEX
 8
PARTS
 10
 14.0212
 20
  2.0488
 30
0.0
 42
  0.0985
 0
VERTEX
 8
PARTS
 10
 14.0277
 20
  2.0585
 30
0.0
 42
  0.0985
 0
SEQEND
 8
PARTS
 0
POLYLINE
 8
PARTS
 66
1
 10
0.0
 20
0.0
 30
0.0
 0
VERTEX
 8
PARTS
 10
 13.9000
 20
  1.6000
 30
0.0
 0
VERTEX
 8
PARTS
 10
 14.1000
 20
  1.6000
 30
0.0
 0
SEQEND
 8
PARTS
 0
POLYLINE
 8
PARTS
 66
1
 10
0.0
 20
0.0
 30
0.0
 0
VERTEX
 8
PARTS
 10
 14.1000
 20
  1.6000
 30
0.0
 0
VERTEX
 8
PARTS
 10
 14.0000
 20
  1.5000
 30
0.0
 0
SEQEND
 8
PARTS
 0
POLYLINE
 8
PARTS
 66
1
 10
0.0
 20
0.0
 30
0.0
 0
VERTEX
 8
PARTS
 10
 14.0000
 20
  1.5000
 30
0.0
 0
VERTEX
 8
PARTS
 10
 13.9000
 20
  1.6000
 30
0.0
 0
SEQEND
 8
PARTS
 0
TEXT
 8
PARTTEXT
 10
  2.5000
 20
  2.1186
 30
0.0
 40
  0.0514
 1
X2
 0
POLYLINE
 8
PARTS
 66
1
 10
0.0
 20
0.0
 30
0.0
 0
VERTEX
 8
PARTS
 10
  2.6000
 20
  2.0400
 30
0.0
 0
VERTEX
 8
PARTS
 10
  2.6000
 20
  2.0000
 30
0.0
 0
SEQEND
 8
PARTS
 0
POLYLINE
 8
PARTS
 66
1
 70
1
 10
0.0
 20
0.0
 30
0.0
 0
VERTEX
 8
PARTS
 10
  2.6300
 20
  2.0700
 30
0.0
 42
  0.0985
 0
VERTEX
 8
PARTS
 10
  2.6277
 20
  2.0815
 30
0.0
 42
  0.0985
 0
VERTEX
 8
PARTS
 10
  2.6212
 20
  2.0912
 30
0.0
 42
  0.0985
 0
VERTEX
 8
PARTS
 10
  2.6115
 20
  2.0977
 30
0.0
 42
  0.0985
 0
VERTEX
 8
PARTS
 10
  2.6000
 20
  2.1000
 30
0.0
 42
  0.0985
 0
VERTEX
 8
PARTS
 10
  2.5885
 20
  2.0977
 30
0.0
 42
  0.0985
 0
VERTEX
 8
PARTS
 10
  2.5788
 20
  2.0912
 30
0.0
 42
  0.0985
 0
VERTEX
 8
PARTS
 10
  2.5723
 20
  2.0815
 30
0.0
 42
  0.0985
 0
VERTEX
 8
PARTS
 10
  2.5700
 20
  2.0700
 30
0.0
 42
  0.0985
 0
VERTEX
 8
PARTS
 10
  2.5723
 20
  2.0585
 30
0.0
 42
  0.0985
 0
VERTEX
 8
PARTS
 10
  2.5788
 20
  2.0488
 30
0.0
 42
  0.0985
 0
VERTEX
 8
PARTS
 10
  2.5885
 20
  2.0423
 30
0.0
 42
  0.0985
 0
VERTEX
 8
PARTS
 10
  2.6000
 20
  2.0400
 30
0.0
 42
  0.0985
 0
VERTEX
 8
PARTS
 10
  2.6115
 20
  2.0423
 30
0.0
 42
  0.0985
 0
VERTEX
 8
PARTS
 10
  2.6212
 20
  2.0488
 30
0.0
 42
  0.0985
 0
VERTEX
 8
PARTS
 10
  2.6277
 20
  2.0585
 30
0.0
 42
  0.0985
 0
SEQEND
 8
PARTS
 0
TEXT
 8
PARTTEXT
 10
  2.5000
 20
  3.1186
 30
0.0
 40
  0.0514
 1
X1
 0
POLYLINE
 8
PARTS
 66
1
 10
0.0
 20
0.0
 30
0.0
 0
VERTEX
 8
PARTS
 10
  2.6000
 20
  3.0400
 30
0.0
 0
VERTEX
 8
PARTS
 10
  2.6000
 20
  3.0000
 30
0.0
 0
SEQEND
 8
PARTS
 0
POLYLINE
 8
PARTS
 66
1
 70
1
 10
0.0
 20
0.0
 30
0.0
 0
VERTEX
 8
PARTS
 10
  2.6300
 20
  3.0700
 30
0.0
 42
  0.0985
 0
VERTEX
 8
PARTS
 10
  2.6277
 20
  3.0815
 30
0.0
 42
  0.0985
 0
VERTEX
 8
PARTS
 10
  2.6212
 20
  3.0912
 30
0.0
 42
  0.0985
 0
VERTEX
 8
PARTS
 10
  2.6115
 20
  3.0977
 30
0.0
 42
  0.0985
 0
VERTEX
 8
PARTS
 10
  2.6000
 20
  3.1000
 30
0.0
 42
  0.0985
 0
VERTEX
 8
PARTS
 10
  2.5885
 20
  3.0977
 30
0.0
 42
  0.0985
 0
VERTEX
 8
PARTS
 10
  2.5788
 20
  3.0912
 30
0.0
 42
  0.0985
 0
VERTEX
 8
PARTS
 10
  2.5723
 20
  3.0815
 30
0.0
 42
  0.0985
 0
VERTEX
 8
PARTS
 10
  2.5700
 20
  3.0700
 30
0.0
 42
  0.0985
 0
VERTEX
 8
PARTS
 10
  2.5723
 20
  3.0585
 30
0.0
 42
  0.0985
 0
VERTEX
 8
PARTS
 10
  2.5788
 20
  3.0488
 30
0.0
 42
  0.0985
 0
VERTEX
 8
PARTS
 10
  2.5885
 20
  3.0423
 30
0.0
 42
  0.0985
 0
VERTEX
 8
PARTS
 10
  2.6000
 20
  3.0400
 30
0.0
 42
  0.0985
 0
VERTEX
 8
PARTS
 10
  2.6115
 20
  3.0423
 30
0.0
 42
  0.0985
 0
VERTEX
 8
PARTS
 10
  2.6212
 20
  3.0488
 30
0.0
 42
  0.0985
 0
VERTEX
 8
PARTS
 10
  2.6277
 20
  3.0585
 30
0.0
 42
  0.0985
 0
SEQEND
 8
PARTS
 0
TEXT
 8
PARTTEXT
 10
  5.4000
 20
  3.5186
 30
0.0
 40
  0.0514
 1
X2
 0
POLYLINE
 8
PARTS
 66
1
 10
0.0
 20
0.0
 30
0.0
 0
VERTEX
 8
PARTS
 10
  5.5000
 20
  3.4400
 30
0.0
 0
VERTEX
 8
PARTS
 10
  5.5000
 20
  3.4000
 30
0.0
 0
SEQEND
 8
PARTS
 0
POLYLINE
 8
PARTS
 66
1
 70
1
 10
0.0
 20
0.0
 30
0.0
 0
VERTEX
 8
PARTS
 10
  5.5300
 20
  3.4700
 30
0.0
 42
  0.0985
 0
VERTEX
 8
PARTS
 10
  5.5277
 20
  3.4815
 30
0.0
 42
  0.0985
 0
VERTEX
 8
PARTS
 10
  5.5212
 20
  3.4912
 30
0.0
 42
  0.0985
 0
VERTEX
 8
PARTS
 10
  5.5115
 20
  3.4977
 30
0.0
 42
  0.0985
 0
VERTEX
 8
PARTS
 10
  5.5000
 20
  3.5000
 30
0.0
 42
  0.0985
 0
VERTEX
 8
PARTS
 10
  5.4885
 20
  3.4977
 30
0.0
 42
  0.0985
 0
VERTEX
 8
PARTS
 10
  5.4788
 20
  3.4912
 30
0.0
 42
  0.0985
 0
VERTEX
 8
PARTS
 10
  5.4723
 20
  3.4815
 30
0.0
 42
  0.0985
 0
VERTEX
 8
PARTS
 10
  5.4700
 20
  3.4700
 30
0.0
 42
  0.0985
 0
VERTEX
 8
PARTS
 10
  5.4723
 20
  3.4585
 30
0.0
 42
  0.0985
 0
VERTEX
 8
PARTS
 10
  5.4788
 20
  3.4488
 30
0.0
 42
  0.0985
 0
VERTEX
 8
PARTS
 10
  5.4885
 20
  3.4423
 30
0.0
 42
  0.0985
 0
VERTEX
 8
PARTS
 10
  5.5000
 20
  3.4400
 30
0.0
 42
  0.0985
 0
VERTEX
 8
PARTS
 10
  5.5115
 20
  3.4423
 30
0.0
 42
  0.0985
 0
VERTEX
 8
PARTS
 10
  5.5212
 20
  3.4488
 30
0.0
 42
  0.0985
 0
VERTEX
 8
PARTS
 10
  5.5277
 20
  3.4585
 30
0.0
 42
  0.0985
 0
SEQEND
 8
PARTS
 0
TEXT
 8
PARTTEXT
 10
  5.6000
 20
  3.4186
 30
0.0
 40
  0.0514
 1
X3
 0
POLYLINE
 8
PARTS
 66
1
 10
0.0
 20
0.0
 30
0.0
 0
VERTEX
 8
PARTS
 10
  5.7000
 20
  3.3400
 30
0.0
 0
VERTEX
 8
PARTS
 10
  5.7000
 20
  3.3000
 30
0.0
 0
SEQEND
 8
PARTS
 0
POLYLINE
 8
PARTS
 66
1
 70
1
 10
0.0
 20
0.0
 30
0.0
 0
VERTEX
 8
PARTS
 10
  5.7300
 20
  3.3700
 30
0.0
 42
  0.0985
 0
VERTEX
 8
PARTS
 10
  5.7277
 20
  3.3815
 30
0.0
 42
  0.0985
 0
VERTEX
 8
PARTS
 10
  5.7212
 20
  3.3912
 30
0.0
 42
  0.0985
 0
VERTEX
 8
PARTS
 10
  5.7115
 20
  3.3977
 30
0.0
 42
  0.0985
 0
VERTEX
 8
PARTS
 10
  5.7000
 20
  3.4000
 30
0.0
 42
  0.0985
 0
VERTEX
 8
PARTS
 10
  5.6885
 20
  3.3977
 30
0.0
 42
  0.0985
 0
VERTEX
 8
PARTS
 10
  5.6788
 20
  3.3912
 30
0.0
 42
  0.0985
 0
VERTEX
 8
PARTS
 10
  5.6723
 20
  3.3815
 30
0.0
 42
  0.0985
 0
VERTEX
 8
PARTS
 10
  5.6700
 20
  3.3700
 30
0.0
 42
  0.0985
 0
VERTEX
 8
PARTS
 10
  5.6723
 20
  3.3585
 30
0.0
 42
  0.0985
 0
VERTEX
 8
PARTS
 10
  5.6788
 20
  3.3488
 30
0.0
 42
  0.0985
 0
VERTEX
 8
PARTS
 10
  5.6885
 20
  3.3423
 30
0.0
 42
  0.0985
 0
VERTEX
 8
PARTS
 10
  5.7000
 20
  3.3400
 30
0.0
 42
  0.0985
 0
VERTEX
 8
PARTS
 10
  5.7115
 20
  3.3423
 30
0.0
 42
  0.0985
 0
VERTEX
 8
PARTS
 10
  5.7212
 20
  3.3488
 30
0.0
 42
  0.0985
 0
VERTEX
 8
PARTS
 10
  5.7277
 20
  3.3585
 30
0.0
 42
  0.0985
 0
SEQEND
 8
PARTS
 0
POLYLINE
 8
PARTS
 66
1
 10
0.0
 20
0.0
 30
0.0
 0
VERTEX
 8
PARTS
 10
 13.5000
 20
  3.1000
 30
0.0
 0
VERTEX
 8
PARTS
 10
 13.7000
 20
  3.1000
 30
0.0
 0
SEQEND
 8
PARTS
 0
POLYLINE
 8
PARTS
 66
1
 10
0.0
 20
0.0
 30
0.0
 0
VERTEX
 8
PARTS
 10
 13.7000
 20
  3.1000
 30
0.0
 0
VERTEX
 8
PARTS
 10
 13.6000
 20
  3.0000
 30
0.0
 0
SEQEND
 8
PARTS
 0
POLYLINE
 8
PARTS
 66
1
 10
0.0
 20
0.0
 30
0.0
 0
VERTEX
 8
PARTS
 10
 13.6000
 20
  3.0000
 30
0.0
 0
VERTEX
 8
PARTS
 10
 13.5000
 20
  3.1000
 30
0.0
 0
SEQEND
 8
PARTS
 0
TEXT
 8
PARTTEXT
 10
  5.2000
 20
  3.6186
 30
0.0
 40
  0.0514
 1
X1
 0
POLYLINE
 8
PARTS
 66
1
 10
0.0
 20
0.0
 30
0.0
 0
VERTEX
 8
PARTS
 10
  5.3000
 20
  3.5400
 30
0.0
 0
VERTEX
 8
PARTS
 10
  5.3000
 20
  3.5000
 30
0.0
 0
SEQEND
 8
PARTS
 0
POLYLINE
 8
PARTS
 66
1
 70
1
 10
0.0
 20
0.0
 30
0.0
 0
VERTEX
 8
PARTS
 10
  5.3300
 20
  3.5700
 30
0.0
 42
  0.0985
 0
VERTEX
 8
PARTS
 10
  5.3277
 20
  3.5815
 30
0.0
 42
  0.0985
 0
VERTEX
 8
PARTS
 10
  5.3212
 20
  3.5912
 30
0.0
 42
  0.0985
 0
VERTEX
 8
PARTS
 10
  5.3115
 20
  3.5977
 30
0.0
 42
  0.0985
 0
VERTEX
 8
PARTS
 10
  5.3000
 20
  3.6000
 30
0.0
 42
  0.0985
 0
VERTEX
 8
PARTS
 10
  5.2885
 20
  3.5977
 30
0.0
 42
  0.0985
 0
VERTEX
 8
PARTS
 10
  5.2788
 20
  3.5912
 30
0.0
 42
  0.0985
 0
VERTEX
 8
PARTS
 10
  5.2723
 20
  3.5815
 30
0.0
 42
  0.0985
 0
VERTEX
 8
PARTS
 10
  5.2700
 20
  3.5700
 30
0.0
 42
  0.0985
 0
VERTEX
 8
PARTS
 10
  5.2723
 20
  3.5585
 30
0.0
 42
  0.0985
 0
VERTEX
 8
PARTS
 10
  5.2788
 20
  3.5488
 30
0.0
 42
  0.0985
 0
VERTEX
 8
PARTS
 10
  5.2885
 20
  3.5423
 30
0.0
 42
  0.0985
 0
VERTEX
 8
PARTS
 10
  5.3000
 20
  3.5400
 30
0.0
 42
  0.0985
 0
VERTEX
 8
PARTS
 10
  5.3115
 20
  3.5423
 30
0.0
 42
  0.0985
 0
VERTEX
 8
PARTS
 10
  5.3212
 20
  3.5488
 30
0.0
 42
  0.0985
 0
VERTEX
 8
PARTS
 10
  5.3277
 20
  3.5585
 30
0.0
 42
  0.0985
 0
SEQEND
 8
PARTS
 0
POLYLINE
 8
PARTS
 66
1
 10
0.0
 20
0.0
 30
0.0
 0
VERTEX
 8
PARTS
 10
 11.9000
 20
  3.1000
 30
0.0
 0
VERTEX
 8
PARTS
 10
 12.1000
 20
  3.1000
 30
0.0
 0
SEQEND
 8
PARTS
 0
POLYLINE
 8
PARTS
 66
1
 10
0.0
 20
0.0
 30
0.0
 0
VERTEX
 8
PARTS
 10
 12.1000
 20
  3.1000
 30
0.0
 0
VERTEX
 8
PARTS
 10
 12.0000
 20
  3.0000
 30
0.0
 0
SEQEND
 8
PARTS
 0
POLYLINE
 8
PARTS
 66
1
 10
0.0
 20
0.0
 30
0.0
 0
VERTEX
 8
PARTS
 10
 12.0000
 20
  3.0000
 30
0.0
 0
VERTEX
 8
PARTS
 10
 11.9000
 20
  3.1000
 30
0.0
 0
SEQEND
 8
PARTS
 0
POLYLINE
 8
PARTS
 66
1
 10
0.0
 20
0.0
 30
0.0
 0
VERTEX
 8
PARTS
 10
  3.9000
 20
  2.9000
 30
0.0
 0
VERTEX
 8
PARTS
 10
  4.1000
 20
  2.9000
 30
0.0
 0
SEQEND
 8
PARTS
 0
POLYLINE
 8
PARTS
 66
1
 10
0.0
 20
0.0
 30
0.0
 0
VERTEX
 8
PARTS
 10
  3.9300
 20
  2.8700
 30
0.0
 0
VERTEX
 8
PARTS
 10
  4.0700
 20
  2.8700
 30
0.0
 0
SEQEND
 8
PARTS
 0
POLYLINE
 8
PARTS
 66
1
 10
0.0
 20
0.0
 30
0.0
 0
VERTEX
 8
PARTS
 10
  4.0400
 20
  2.8400
 30
0.0
 0
VERTEX
 8
PARTS
 10
  3.9600
 20
  2.8400
 30
0.0
 0
SEQEND
 8
PARTS
 0
POLYLINE
 8
PARTS
 66
1
 10
0.0
 20
0.0
 30
0.0
 0
VERTEX
 8
PARTS
 10
  3.9900
 20
  2.8100
 30
0.0
 0
VERTEX
 8
PARTS
 10
  4.0100
 20
  2.8100
 30
0.0
 0
SEQEND
 8
PARTS
 0
TEXT
 8
PARTTEXT
 10
  8.5400
 20
  3.0386
 30
0.0
 40
  0.0514
 1
5V
 0
POLYLINE
 8
PARTS
 66
1
 10
0.0
 20
0.0
 30
0.0
 0
VERTEX
 8
PARTS
 10
  8.6000
 20
  3.0000
 30
0.0
 0
VERTEX
 8
PARTS
 10
  8.6000
 20
  2.9000
 30
0.0
 0
SEQEND
 8
PARTS
 0
POLYLINE
 8
PARTS
 66
1
 10
0.0
 20
0.0
 30
0.0
 0
VERTEX
 8
PARTS
 10
  8.6500
 20
  3.0000
 30
0.0
 0
VERTEX
 8
PARTS
 10
  8.5500
 20
  3.0000
 30
0.0
 0
SEQEND
 8
PARTS
 0
POLYLINE
 8
PARTS
 66
1
 10
0.0
 20
0.0
 30
0.0
 0
VERTEX
 8
PARTS
 10
  8.5000
 20
  2.5000
 30
0.0
 0
VERTEX
 8
PARTS
 10
  8.7000
 20
  2.5000
 30
0.0
 0
SEQEND
 8
PARTS
 0
POLYLINE
 8
PARTS
 66
1
 10
0.0
 20
0.0
 30
0.0
 0
VERTEX
 8
PARTS
 10
  8.5300
 20
  2.4700
 30
0.0
 0
VERTEX
 8
PARTS
 10
  8.6700
 20
  2.4700
 30
0.0
 0
SEQEND
 8
PARTS
 0
POLYLINE
 8
PARTS
 66
1
 10
0.0
 20
0.0
 30
0.0
 0
VERTEX
 8
PARTS
 10
  8.6400
 20
  2.4400
 30
0.0
 0
VERTEX
 8
PARTS
 10
  8.5600
 20
  2.4400
 30
0.0
 0
SEQEND
 8
PARTS
 0
POLYLINE
 8
PARTS
 66
1
 10
0.0
 20
0.0
 30
0.0
 0
VERTEX
 8
PARTS
 10
  8.5900
 20
  2.4100
 30
0.0
 0
VERTEX
 8
PARTS
 10
  8.6100
 20
  2.4100
 30
0.0
 0
SEQEND
 8
PARTS
 0
POLYLINE
 8
PARTS
 66
1
 10
0.0
 20
0.0
 30
0.0
 0
VERTEX
 8
PARTS
 10
 13.5000
 20
  4.5000
 30
0.0
 0
VERTEX
 8
PARTS
 10
 13.7000
 20
  4.5000
 30
0.0
 0
SEQEND
 8
PARTS
 0
POLYLINE
 8
PARTS
 66
1
 10
0.0
 20
0.0
 30
0.0
 0
VERTEX
 8
PARTS
 10
 13.5300
 20
  4.4700
 30
0.0
 0
VERTEX
 8
PARTS
 10
 13.6700
 20
  4.4700
 30
0.0
 0
SEQEND
 8
PARTS
 0
POLYLINE
 8
PARTS
 66
1
 10
0.0
 20
0.0
 30
0.0
 0
VERTEX
 8
PARTS
 10
 13.6400
 20
  4.4400
 30
0.0
 0
VERTEX
 8
PARTS
 10
 13.5600
 20
  4.4400
 30
0.0
 0
SEQEND
 8
PARTS
 0
POLYLINE
 8
PARTS
 66
1
 10
0.0
 20
0.0
 30
0.0
 0
VERTEX
 8
PARTS
 10
 13.5900
 20
  4.4100
 30
0.0
 0
VERTEX
 8
PARTS
 10
 13.6100
 20
  4.4100
 30
0.0
 0
SEQEND
 8
PARTS
 0
POLYLINE
 8
PARTS
 66
1
 10
0.0
 20
0.0
 30
0.0
 0
VERTEX
 8
PARTS
 10
 11.9000
 20
  4.5000
 30
0.0
 0
VERTEX
 8
PARTS
 10
 12.1000
 20
  4.5000
 30
0.0
 0
SEQEND
 8
PARTS
 0
POLYLINE
 8
PARTS
 66
1
 10
0.0
 20
0.0
 30
0.0
 0
VERTEX
 8
PARTS
 10
 11.9300
 20
  4.4700
 30
0.0
 0
VERTEX
 8
PARTS
 10
 12.0700
 20
  4.4700
 30
0.0
 0
SEQEND
 8
PARTS
 0
POLYLINE
 8
PARTS
 66
1
 10
0.0
 20
0.0
 30
0.0
 0
VERTEX
 8
PARTS
 10
 12.0400
 20
  4.4400
 30
0.0
 0
VERTEX
 8
PARTS
 10
 11.9600
 20
  4.4400
 30
0.0
 0
SEQEND
 8
PARTS
 0
POLYLINE
 8
PARTS
 66
1
 10
0.0
 20
0.0
 30
0.0
 0
VERTEX
 8
PARTS
 10
 11.9900
 20
  4.4100
 30
0.0
 0
VERTEX
 8
PARTS
 10
 12.0100
 20
  4.4100
 30
0.0
 0
SEQEND
 8
PARTS
 0
TEXT
 8
PARTTEXT
 10
  6.4400
 20
  3.9386
 30
0.0
 40
  0.0514
 1
5V
 0
POLYLINE
 8
PARTS
 66
1
 10
0.0
 20
0.0
 30
0.0
 0
VERTEX
 8
PARTS
 10
  6.5000
 20
  3.9000
 30
0.0
 0
VERTEX
 8
PARTS
 10
  6.5000
 20
  3.8000
 30
0.0
 0
SEQEND
 8
PARTS
 0
POLYLINE
 8
PARTS
 66
1
 10
0.0
 20
0.0
 30
0.0
 0
VERTEX
 8
PARTS
 10
  6.5500
 20
  3.9000
 30
0.0
 0
VERTEX
 8
PARTS
 10
  6.4500
 20
  3.9000
 30
0.0
 0
SEQEND
 8
PARTS
 0
TEXT
 8
PARTTEXT
 10
  5.2400
 20
  1.9386
 30
0.0
 40
  0.0514
 1
5V
 0
POLYLINE
 8
PARTS
 66
1
 10
0.0
 20
0.0
 30
0.0
 0
VERTEX
 8
PARTS
 10
  5.3000
 20
  1.9000
 30
0.0
 0
VERTEX
 8
PARTS
 10
  5.3000
 20
  1.8000
 30
0.0
 0
SEQEND
 8
PARTS
 0
POLYLINE
 8
PARTS
 66
1
 10
0.0
 20
0.0
 30
0.0
 0
VERTEX
 8
PARTS
 10
  5.3500
 20
  1.9000
 30
0.0
 0
VERTEX
 8
PARTS
 10
  5.2500
 20
  1.9000
 30
0.0
 0
SEQEND
 8
PARTS
 0
TEXT
 8
PARTTEXT
 10
 10.9400
 20
  3.0386
 30
0.0
 40
  0.0514
 1
5V
 0
POLYLINE
 8
PARTS
 66
1
 10
0.0
 20
0.0
 30
0.0
 0
VERTEX
 8
PARTS
 10
 11.0000
 20
  3.0000
 30
0.0
 0
VERTEX
 8
PARTS
 10
 11.0000
 20
  2.9000
 30
0.0
 0
SEQEND
 8
PARTS
 0
POLYLINE
 8
PARTS
 66
1
 10
0.0
 20
0.0
 30
0.0
 0
VERTEX
 8
PARTS
 10
 11.0500
 20
  3.0000
 30
0.0
 0
VERTEX
 8
PARTS
 10
 10.9500
 20
  3.0000
 30
0.0
 0
SEQEND
 8
PARTS
 0
TEXT
 8
COMMENTS
 10
 12.2000
 20
  1.3186
 30
0.0
 40
  0.0514
 1
Connectors for different voltages
 0
TEXT
 8
COMMENTS
 10
 12.2000
 20
  1.2453
 30
0.0
 40
  0.0514
 1
 
 0
TEXT
 8
COMMENTS
 10
 12.2000
 20
  1.1719
 30
0.0
 40
  0.0514
 1
     ( Grounds are common )
 0
ENDSEC
 0
EOF
